2005-07-05 10:26:35

キヤノン「EOS KISS デジタル」

テーマ:CM音楽

(c) キヤノン

遅ればせながら KISS 「ラヴィン・ユー・ベイビー(I was Made for Lovin' You)」替え歌を子供たちが歌うCMを(→コチラで視聴 )検証。キーは、マーティ・フリードマンが言う(→参照 )「ヘビメタに最適化されたキーEm」だ。英語の聴き取りは若干よく解らない部分が多かったので誤訳ご了承いただきたい(字幕日本語歌詞はかなりの意訳と思われる)。



KISS/Dynasty
【A】
Today you glance at all please. We shuld have
Today ねえ、ママ お願い。  
|4/4 Em |Em |G |G|
all your he- art, We'are all girls and boys
「可愛いのも いまのうち」 なんでしょ?
|B |B |A |A|
【B】
We need kiss, for- ever and ever, We want lovin' Memories.
思い出は キレイに 残したいん だ。
|Em |Em |A |Em-D|
Lu lu lu lu lu lu lu lu lu ...... ....
|Em |Em |A |Em-D|

5 スターティングキット付き

LITE ボディ


CM版はほぼシンセサイザーによる構成だが、ベースのリズムパターンなどは原作に忠実なようだ。

原曲のジーン・シモンズ(Gene Simmons)のベースライン、冒頭のベースソロ部は、

   Em
   +   +   +   +
G:-----------------|
D:-----------------|
A:---7---7-----7---|
E:-0---0---0-0---0-|

ギターが入ってきて【B】パート(サビ)のコード進行を演奏。

Bass:

   Em                                  A                 Em  D
   +   +   +   +     +   +   +   +     +   +   +   +     +   +   +   +
G:-----------------|-----------------|-----------------|-------7-----7---|
D:-----------------|-----------------|---7---7-----7---|-----------------|
A:---7---7-----7---|---7---7-----7---|-----------------|---7-5---5-5---5-|
E:-0---0---0-0---0-|-0---0---0-0---0-|-5---5---5-5---0-|-0---------------|

リズムギターのパターンがカッコいい。

Guitar:
   Em                                  A                 Em  D
   +   +   +   +     +   +   +   +     +   +   +   +     +   +   +   +
e:-----------------|-----------------|-----------------|-----------------|
B:-----10--8-----10|---108-----------|-----------------|-----------------|
G:-----9---9-----9-|---9-9-----------|-----7---5-----9-|---9-7-----------|
D:-----7---7-----7-|---7-7-----------|-----7---5-----9-|---9-7-----------|
A:-----7---7-----7-|---7-7-----------|-----7---5-------|-----------------|
E:-----------------|-----------------|-----------------|-----------------|

後はこのパターンの応用、ギターはコードを刻めばよい。 ジーン・シモンズ、自分のサイトでもこのCMへのリンク張っていて、ちょっとオモロイ。

■関連記事:下着泥棒 vs ジーン・シモンズ  今日のマーティ・フリードマン キューティーハニー エロジャケに気をつけろ  

■関連リンク: キヤノンEOS KISS CMページ ジーン・シモンズ・コム

dukkiedukkieさんの読者になろう

ブログの更新情報が受け取れて、アクセスが簡単になります

コメント

[コメントする]

Ameba人気のブログ

Amebaトピックス

    ブログをはじめる

    たくさんの芸能人・有名人が
    書いているAmebaブログを
    無料で簡単にはじめることができます。

    公式トップブロガーへ応募

    多くの方にご紹介したいブログを
    執筆する方を「公式トップブロガー」
    として認定しております。

    芸能人・有名人ブログを開設

    Amebaブログでは、芸能人・有名人ブログを
    ご希望される著名人の方/事務所様を
    随時募集しております。