1 | 2 | 3 | 4 | 5 |最初 次ページ >> ▼ /
2005-08-31 23:00:18

パルナスの歌(関西の洋菓子店)

テーマ:CM音楽(食品)

パルナス

パルナス

パルナス

パルナス

パルナス

パルナス

パルナス

ロシアケーキ【ギフトセット】


■ボニー・ジャックス


NHK「みんなのうた」チュンチュンワールド~マジックカーニヴァル


決定版 山の歌IV~槍が岳讃歌~

 夏休みの宿題に取り組む。暫く、皆様からのリクエスト対応を頑張りまする。今日は hanabo@夜半余話 さまからのリクエスト(参照 )、「パルナス」を。


 > CMの映像をみてたら、パルナスのCMを思い出しました。
 >
 > そ~っとかみしめてごら~ん
 > ま~まの温かい心が
 >
 > あれもマイナーっぽいですがどうでしょうか?(笑


 承りました。ブツが揃いましたので早速解析をば。キーはご指摘のとおりマイナー、Cマイナー。


 「パルナスの歌」

 作詞:津島秀雄

 作曲:津島秀雄

 うた:中村メイコ&ボニー・ジャックス


【A】

ぐっと噛み締めてご らん。 ママの暖かい 心が
|2/4 Cm |Ab |Cm-Ab |Cm-G7|
お口の中に 染み透るよ。 パールナス。
|Cm |Ab-G7-Cm |Cm-G7|


 まず【A】パートは、フリー・リズム気味でピアノと女性ヴォーカルのみの演奏。リズムを掴みにくいが、ゆったりとした2/4拍子だと思う。1~2小節のコード進行は、


 Ⅰm-♭Ⅵ


これがこの曲の骨格となるコード・パターンだと思う。短6上昇進行(参照 )で奇異な感じを受けるが、


 Ⅰm-♭Ⅶ-♭Ⅵ-Ⅴ7


というマイナー版循環コード(参照 )の赤字部分が省略されたものと解釈できると思う。実際、これらのコードを一瞬挿入しても、曲が成立することがわかるだろう。この構造を把握すれば、残りの進行は全てわかるだろう。


【B】

甘いお 菓子の お国の 便り
|3/4 Cm |Ddim |G7 |Cm|
お伽の 国の ロシア の。
|Ab |G7 |Cm |G7|
夢の お橇が 運んでくれ た。
|Bb7 |Adim |Ab |G7|
パルナス、 パルナス、 モスクワ の味。
|Cm |Eb |Ab |G7|
パルナス、 パルナス、 パルナス。
|Cm |Ab |Cm|


 ここからウッド・ベース、男性コーラスが加わる。1~4小節目は

 Ⅰm-Ⅱdim-Ⅴ7-Ⅰm


Ⅰm-Ⅵm7-ⅡdimのⅥが省略されたと考えるとこれも循環コード。物凄く物悲しい。5~8小節、♭Ⅵ-Ⅴ7-Ⅰm-Ⅴ7は、【A】パートの構造に同じ。9~12小節、


 ♭Ⅶ-Ⅵdim-♭Ⅵ-Ⅴ7


Ⅰm-♭Ⅶ-♭Ⅵ-Ⅴ7循環パターンの♭Ⅶ-♭Ⅵ間に経過音としてのディミニッシュコードを挿入したもの。13~16小節、


 Ⅰm-♭Ⅲ-♭Ⅳ-Ⅴ7


「かっぱの歌」 で指摘したようにマイナー版循環コード。17~19小節は、この曲の骨格である


 Ⅰm-♭Ⅵ-Ⅰm


で終止。自分も関西育ちなので、幼少時代何回もこのCM見ました。しかし、何故創業者は「ロシアのケーキ」というコンセプトを思いついたのだろう? 当時「お伽の国」じゃなくて「スターリン粛清の国」だったはずで。


■関連リンク:パルナスファンサイト (物凄い資料です!)

■関連記事:樋屋奇応丸  ケイト・ブッシュ「嵐が丘」  黄桜酒造「かっぱの歌」 ジンギスカン「目指せモスクワ」 チェブラーシカ


いいね!した人  |  コメント(85)  |  リブログ(0)
2005-08-31 21:00:56

リゲイン「カンヌ国際広告際入賞作品」

テーマ:CM音楽(医薬品)


(C) 三共株式会社


リゲインR 50ml*50本


 カッコいいギターリフ!


 リゲインのカンヌ国際広告際入賞作品、「カマキリ vs モンシロチョウ篇」(コチラで視聴 )のギター・リフをコピー。最近のCMのギターソロのなかでは、卓越した出来だ。キーはCマイナー。


   Cm
   +       +       +       +
e:---------------------------------|
B:-----------------111111----------|
G:-------------12----------13--12--|
D:-101010--13----------------------|
A:---------------------------------|
E:---------------------------------|
   Bb7
   +       +       +       +
e:---------------------------------|
B:-----------------13--------------|
G:-101010------------------12------|
D:---------13--12------------------|
A:---------------------------------|
E:---------------------------------|
   Ab7
   +       +       +       +
e:---------------------------------|
B:-----------------111111----------|
G:-------------12----------13--12--|
D:-101010--13----------------------|
A:---------------------------------|
E:---------------------------------|
   G7
   +       +       +       +
e:---------------------------------|
B:---------------------------------|
G:/10------------------------------|
D:/9-------------------------------|
A:---------------------------------|
E:---------------------------------|


 コード進行は、かっぱの歌 と同じマイナー版循環コード、

 Ⅰm-♭Ⅶ7-♭Ⅵ7-Ⅴ7

しびれるリフレインだ。画像も面白すぎ。

■関連リンク:Regain 公式サイト

■関連記事:黄桜酒造「かっぱの歌」

いいね!した人  |  コメント(0)  |  リブログ(0)
2005-08-31 20:00:30

CHARA+汐見由香理「カネボウ freeplus」

テーマ:CM音楽(医薬品)
フリープラス コンファタブル ローション1 125ml


Chara
THE BEST BABY B


Cymbals
That's Entertainment

 モデル 汐見由香理が出演するカネボウ化粧品のブランド「フリープラス(freeplus)」のCM音楽(コチラで視聴 )は滅茶苦茶センスがいい。化粧をする女性心理と、シカゴ・ブルースの見事な融合。音楽監督は、シンバルズ(Cymbals)、モーニング娘系のアイドルたちをプロデュースしてきた矢野博康氏。そして、ヴォーカルはCHARAだ!


  キーはDメジャーで、4/4拍子。ギター、ベースは以下のリフを繰り返す。

          D7
  +  +    +  +  +  +
e:------|-------------|
B:------|-------------|
G:------|-------------|
D:------|-0-----------|
A:--0303|---------0303|
E:------|-------------|

 マディ・ウォーターズ(Muddy Waters)の「ローリン・ストーン(Rollin' Stone)」スタイルのブルース。この曲名があのローリング・ストーンズのバンド名となった(有名ですが念のため)。

***。

  ***。 ***
|4/4 D7 |D7 |D7 |D7|
***。 ***。
|C7 |C7|

 本当にセンスのいいCMだ。

■関連リンク:freeplus 公式サイト

■関連記事:上野樹里「クリアクリーン」  ローリング・ストーンズ「悪魔を憐れむ歌」


Muddy Waters
The Chess Box



【このコンテンツは批評目的より、カネボウTV-CM楽曲の引用が含まれています。音楽の著作権は著作権者に帰するものです。また、個人的耳コピのため音楽的には間違った解釈である可能性もありますが、故意に著作権者の音楽の価値を低めようとするものではありません。著作権者の権利、音楽の美学を侵害した場合いかなる修正・削除要請にも応じます】

いいね!した人  |  コメント(0)  |  リブログ(0)
2005-08-31 19:00:29

ヘビメタさん存続祈願【1】ザ・フー「アイ・キャント・エクスプレイン」

テーマ:ヘビメタさん

The Who
The Kids Are Alright

 貴重な番組を終わらせてはならない!


 ヘビメタさんは、元メガデスのマーティ・フリードマンと毎週ゲストとして訪れる様々なミュージシャン達が楽器で遊ぶ姿を見るだけで面白い番組だ。僕は同僚JM氏に進められて5月頃 見始めたが、すぐに大のお気に入り番組になった。


 マーティのギターから、オモチャ箱をひっくり返したように飛び出してくる、数々のフレーズ。それらは、僕のロック魂に火をつけてくれ、毎週毎週「今日はどんなフレーズを弾いてくれるんだろ?」という楽しみを与えてくれた。昔自分がラジオやレコードで聴いたフレーズを、「自分でも弾いてみよう」という気にさせてくれた。音を楽しむ、これぞ「音楽」の原点じゃないか?


 ヘビメタさんで登場したギターフレーズを振り返りながら、この番組の偉大さを多くの人にわかって欲しいので、暫く集中連載。今日は、昨日(8/31 01:00)放映分から、ザ・フー(the Who)「アイ・キャント・エクスプレイン(I can't Explain)」

   E       D         A       E
   +   +   +   +     +   +   +   +
e:-----------------|-5---------------|
B:-9-------7---7---|-5-------9---9---|
G:-9-------7---7---|-6-------9---9---|
D:-9-------7---7---|-7-------9---9---|
A:-7-------5---5---|-7-------7---7---|
E:-----------------|-5---------------|


 単なるセーハコードだ。弱く弾いても意味が無い。とにかく、力強くカッティング、繰り返す。コレがロックだ。そんな、とても大切なことを教えてくれる番組なのだ。コード進行はⅠ-♭Ⅶ-Ⅳ-Ⅰのアーメン終止系。とにかく力強く!

■関連リンク:ヘビメタさん存続希望署名 ヘビメタさん公式ページ

■関連記事:ヘビメタさん過去記事一覧

いいね!した人  |  コメント(0)  |  リブログ(0)
2005-08-31 18:00:00

残酷なニートのテーゼ(寄生虫エヴァンゲリオン)

テーマ:盗作?常套句?

残酷な天使のテーゼ / FLY ME TO THE MOON

【このコンテンツは批評目的による替え歌音楽の引用が含まれています。音楽の著作権は著作権者に帰するものです。また、個人的耳コピのため音楽的には間違った解釈である可能性もありますが、故意に著作権者の音楽の価値を低めようとするものではありません。著作権者の権利、音楽の美学を侵害した場合いかなる修正・削除要請にも応じます】

 


昨日採り上げた 新世紀エヴァンゲリオン「残酷な天使のテーゼ」のパロディFlash動画、「残酷なニートのテーゼ」(コチラで視聴 )のコード進行を。といっても、替え歌だからコード進行は同じだが、補遺の意で弾き語ってみよう。


 作曲:佐藤英敏

 編曲:大森俊之


【I】

残酷な 社会の底辺 少年よ ニートになれ。
|4/4 Cm-Fm |Bb7-Eb |Cm-Fm |Bb7-Cm|


 
【A-1】

老いた親 がいま、部 屋のドアをた たいても、画面
|Eb |Bb7 |Cm-Bb7 |Ab|
だけをただ 見つめて、微 笑んでる あなた。
|Bb7 |Eb-Cm |Dm7 |G7|


 
【A-2】

暇をつ ぶすもの、レ スすることに 夢中で、就
|Eb |Bb7 |Cm-Bb7 |Ab|
職さえ、まま ならない、い たいだけの日 々。
|Bb7 |Eb-Cm |Dm7 |G7|


 
【B】

だけどいつか 気付くでしょう その暮らしに は、
|Ab |Gm7-Cm |Fm-Bb7 |Bb7-Eb|
遥か未来 めざすための 夢がないこ と。
|Ab |Gm7-Cm |Dm7 |G7|


 


【C】

残酷な ニートのテーゼ 窓辺から やがて飛び立つ。
|Cm-Fm |Bb7-Eb |Cm-Fm |Bb7-Eb|
ほとばしる やる気のなさで 両親を 裏切るなら。
|Cm-Fm |Bb7-Eb |Cm-Fm |Bb7-Cm|
このドアを 未だ出られぬ 青年よ ニートになれ。
|Cm-Fm |Bb7-Eb |Cm-Fm |Bb7-Cm|


 ニートという胎内回帰=人類補完計画。生命の樹を模した2ch 用語のツリー図、ニート君画像に笑えた。


■関連リンク:寄生虫エヴァンゲリオン  寄生虫エヴァンゲリオン (ザイーガミラー)

■関連記事:新世紀エヴァンゲリオン「残酷な天使のテーゼ」

いいね!した人  |  コメント(1)  |  リブログ(0)
2005-08-31 17:00:14

大塚愛「さくらんぼ」コード進行解析

テーマ:大塚愛

大塚愛
さくらんぼ (DVD付) (CCCD)

大塚愛
さくらんぼ (CCCD)


大塚愛
LOVE PUNCH (DVD付) (CCCD)


大塚愛
LOVE PUNCH (通常盤) (CCCD)

【このコンテンツは批評目的により、大塚愛氏の楽曲「さくらんぼ」の引用が含まれています。音楽の著作権は著作権者に帰するものです。また、個人的耳コピのため音楽的には間違った解釈である可能性もありますが、故意に著作権者の音楽の価値を低めようとするものではありません。著作権者の権利、音楽の美学を侵害した場合いかなる修正・削除要請にも応じます】


 新学期初めの宿題整理。今日は rally さんリクエスト(参照 )、大塚愛「さくらんぼ」。「何を今更」感があるが、面白く書けるかな?


 キーはGメジャー、4/4拍子。スカっぽい拍の裏打ちが特徴。


【I-1】
*** *** *** ***
|4/4 G |D7/F# |Em7 |Bm7|
*** *** *** ***
|C-D7 |Bm7-Em7 |Am7-D7 |G|

 最初にサビから入る、「一番最初に一番大事なことを言う」パターン。ここはキーボードのみの伴奏。コード進行は


 Ⅰ-Ⅴ7/Ⅶ-Ⅵm7-Ⅲm7

 Ⅳ-Ⅴ7-Ⅲm7-Ⅵm7-Ⅱm7-Ⅴ5-Ⅰ


基本的にパッヘルベルのカノン(参照 )のコード進行


 Ⅰ-Ⅴ7-Ⅵm7-Ⅲm7-Ⅳ-Ⅰ-Ⅳ-Ⅴ7


と同一と考えてよい。1~4小節目は同じだし、5~8小節もよくよく見ると、

 サブドミナント→トニック→サブドミナント→ドミナント→トニック

という進行で、ドミナントⅤ7を挿入したり、Ⅰを同じトニックのⅢm7、Ⅵm7に代理させているに過ぎないからだ。また、5~8小節目の進行は2番目のⅤ7を除くと、「短2度下降の後、完全4度上昇を繰り返す」パターン(参照 )であることが解る。 とまあ、「絶対に万人にアピールすること間違いなし」なコード進行必勝(?)パターンでの構成。


 基本的にこの曲はこの部分につきる。あとのパートはコレを際立たせるための付属物のようなもの。コード進行的にも地味なものだ。


【I-2】

|G |G |G |G|
|G |G |G |G|
|D7 |D7|


 ドラムス、ベース、ギターが入ってきて間奏。トニックⅠ=Gのワンコードを8小節、その後ドミナントへ。


【A】

*** *** *** ***
|C |G |C |G|
*** *** *** ***
|C |G |C |G|
***  *** *** ***
|C |G |C |G|
*** ***  *** ***。
|C |G |C |G|


 バース部。Ⅳ-Ⅰヴァンプ(参照 )の繰り返し。この部分、ファズかけ気味のリズム・ギター、カッティングが素晴らしい。

   C                 G
   +   +   +   +     +   +   +   +
e:---8-------------|---10--7---------|
B:---8---8-----8---|---8---8---8-----|
G:-------9---9---9-|-------7---7-9---|
D:-----------------|-----------------|
A:-----------------|-----------------|
E:-----------------|-----------------|


【B】

*** *** ******。 ***
|Em7 |G |C |G|
*** ***
|C |D7|


 ブリッジ。とにかくサビへ至れればよい。


 Ⅵm7-Ⅰ-Ⅳ-Ⅰ-Ⅳ-Ⅴ7


【C-1】

*** *** *** ***。
|G |D7/F# |Em7 |Bm7|
*** *** *** ***
|C-D7 |Bm7-Em7 |C |D7|


 基本的に【I-1】と同じ進行であるが、繰り返し【C-2】にいたるため、7~8小節をⅣ-Ⅴ7としている。


【C-2】

*** ***  *** ***
|G |D7/F# |Em7 |Bm7|
*** *** *** ***
|C-D7 |Bm7-Em7 |Am7-D7 |G|


 【I-1】と同じ。この碁【I-2】、【A】、【B】、【C】を繰り返すが、繰り返し時の【C-2】の8小節目はEm7とトニックのマイナーに代理している。 その後、Em7ワンコードでの間奏が入り、【C】を「もう一回」などといいつつ繰り返して終了。シンプルないい曲だと思う。

 皆様。時間はかかっても必ず解析しますので、どんどんリクエストくださいね。いい勉強になるので。入手困難な音源はかなり時間がかかりますが。


■関連記事:大塚愛「SMILY」  パッヘルベルのカノン  ワコール・デコルテメイクブラ  美少女戦士セーラームーン


☆音楽解析の続編は『コチラ』 にて!

いいね!した人  |  コメント(1)  |  リブログ(0)
2005-08-31 16:00:56

水野美紀「アクティブダイエット」

テーマ:CM音楽(食品)

アクエリアス アクティブダイエット 1ケース(2L×6本)


桃乃未琴



桃乃未琴
愛したい

水野美紀が出演する、コカコーラ・アクティブダイエットCM音楽(コチラで視聴 )を。SUBLE作曲のオリジナル曲で、桃乃未琴がヴォーカル。

歩いて飲んで アクティヴ・ダイエット、 歩いて飲んで アクティヴ・ダイエット、
|E7 |E7 |E7 |E7|
歩いて飲んで アクティヴ・ダーイ エット。
|A7 |A7 |A7 |A7|
アクティヴ ダイエット。
|E7 |E7 |E7 |E7|

 ルーズなノリのスワンプ・ファンクっぽい曲。ベース&ドラムスに、ハーモニカ、リコーダー、スライド・ギター、ハンド・ラップ(手拍子)が加わった音だ。


 桃乃未琴のハスキー・ヴォイスが素晴らしい。桃乃未琴、昔深夜放送のDJをやっていて毎週聞いていた時期がある。彼女の好きな音楽は、ドゥービー・ブラザーズや、ジャニス・ジョップリンなどだったと思う。押えるべきところを押さえた、今後が期待される音楽家だ。頑張れ、現代日本の女性ロック姉ちゃん、桃乃未琴。


■関連リンク:GRAND FUNC INC.(CM山盛り)

■関連記事:ローズマリー・バトラー  シェイプアップ・インナー

いいね!した人  |  コメント(0)  |  リブログ(0)
2005-08-31 15:00:22

クー「秋のトンボ篇」

テーマ:CM音楽(食品)
Qooクー・フィギュア2 デイリーヤマザキ版(3体)
でかQoo(クー)・コカコーラ(全8種)

コカコーラのクー、夏のサッカー篇 はかなりアレンジ済みのヴァージョンだから、今日は2003年放映の「秋のトンボ篇」(コチラで視聴) を弾き語ってみよう。これはオリジナル・ヴァージョンに近いものと思われる。キーはBbメジャー、4/4拍子。


 作詞:河原 康明、鍬本良太郎、丸山もも子

 作曲:福井洋介  

 歌&演奏:タズ


子供だって、美味 いんだもん。 飲んだら、こう 言っちゃうよ。
|Bb |G7 |Eb |Gb7b5-F7|

 Ⅰ-Ⅵ7-Ⅳ-♭Ⅵ7b5-Ⅴ7

という進行。2小節目のⅥはⅥm7でも通用するが、メジャーで鳴っているような気がする。4小節目の♭Ⅵ7b5(=Gb7b5)は、ドッペルドミナント化されたサブドミナントⅡ7(=C7)に代理されたサブドミナント・マイナーと捉えられる。


 C7=C, E, G, Bb

 Gb7=Gb, Bb, C,E


と3音が共通するからだ。名曲だなぁ、くー。


■関連リンク:クーCMギャラリー

■関連記事:夏のサッカー篇

いいね!した人  |  コメント(0)  |  リブログ(0)
2005-08-31 14:00:15

新庄剛志「サッポロ 生搾り」

テーマ:CM音楽(食品)

サッポロ 北海道生搾り 500ml 24缶入

大脱走


エルマー・バーンスタイン
オリジナル・サウンドトラック「大脱走」

 新庄剛志が出演するサッポロ発泡酒「生搾り」CM(コチラで視聴 )音楽を。この音楽は、スティーブ・マックイーン主演映画「大脱走」のテーマ曲だ。作曲はエルマー・バーンスタイン。


 CMでのキーはEbだが、キーをEにしてギター簡易独奏できるようにしてみた。

            E                 A
  +   +     +   +   +   +     +   +   +   +
e:--------|---0---------4--2|-0---------------|
B:--------|-0---------0-----|---2-------------|
G:--1-2-3-|-----------------|-----------------|
D:--------|-----------------|-----------------|
A:--------|-----2-------2---|-0-------0-------|
E:--------|-0-------0-------|-----0-------0---|
   B7                E
   +   +   +   +     +   +   +   +
e:-2-2---0----0----|-----------------|
B:---------4---4-2-|-0---------------|
G:-----------------|---1-------1-2-3-|
D:-----------------|-----------------|
A:-2-------2-------|-----2-------2---|
E:-----2-------2---|-0-------0-------|
   E                 A
   +   +   +   +     +   +   +   +
e:---0---------4--2|-0---------------|
B:-0---------0-----|---2-------------|
G:-----------------|-----------------|
D:-----------------|-----------------|
A:-----2-------2---|-0-------0-------|
E:-0-------0-------|-----0-------0---|
   B7                E
   +   +   +   +     +   +   +   +
e:-2-2---0-------2-|-0---------------|
B:---------4-0-----|-----------------|
G:-----------------|-----------------|
D:-----------------|-----------------|
A:-2-------2-------|-----2-------2---|
E:-----2-------2---|-0-------0-------|


 コード進行は

 Ⅰ-Ⅳ-Ⅴ7-Ⅰ

のスリーコード。

■関連リンク:生搾りCMギャラリー

■関連記事:刑事コロンボ

いいね!した人  |  コメント(0)  |  リブログ(0)
2005-08-31 13:00:17

カロリーメイト「ジャック・バウアー追跡篇」(24 TWENTY FOUR)

テーマ:CM音楽(食品)


(C) 大塚製薬


カロリーメイト4本入30箱入り

24 -TWENTY FOUR- シーズン4 DVDコレクターズ・ボックス



24 -TWENTY FOUR- シーズン3 DVDコレクターズ・ボックス


24 -TWENTY FOUR- シーズン1 DVDコレクターズ・ボックス


24 -TWENTY FOUR- シーズン2 DVDコレクターズ・ボックス (初回出荷限定価格版)

 24(-TWENTY FOUR-)のジャック・バウアー(キーファー・サザーランド)が出演するカロリーメイトのCM音楽(こちらで音楽が聴ける )をギターで弾いてみる。キーはGマイナー、4/4拍子。


   Gm
   +  +  +  +    +  +  +  +
e:-------------|-------------|
B:-------------|-------------|
G:-----------35|-----------35|
D:-5--5555--6--|-5--5555--6--|
A:-5--5555-----|-5--5555-----|
E:-3--3333-----|-3--3333-----|

   +  +  +  +    +  +  +  +
e:-------------|-------------|
B:----------43-|-------------|
G:------------5|-4-----------|
D:-5--5555-----|--5353-3---35|
A:-5--5555-----|------4-434--|
E:-3--3333-----|-------------|

 1拍は3連符になっている。基本的にGマイナーのワン・コードで弾きとおせる。この危機迫るような力強いリフが続いた後、以下の旋律が入る。


   Gm
  +    +  +  +  +    +  +  +  +
e:3--|-7--------3--|-6--------3--|
B:3--|-6--------3--|-6--------3--|
G:---|-------------|-------------|
D:---|-------------|-------------|
A:---|-------------|-------------|
E:---|-------------|-------------|
   +  +  +  +
e:/13----------|
B:/11----------|
G:-------------|
D:-------------|
A:-------------|
E:-------------|


 作曲は「攻殻機動隊」、「阿修羅城の瞳」、「創聖のアクエリオン」などの音楽を作ってきた菅野よう子さん。


 シリーズ同様、今後の展開が楽しみ。


■関連リンク:カロリーメイト×24公式ページ  菅野よう子ネットワーク

■関連記事:キム・バウアーの「ガール・ネクスト・ドア」

いいね!した人  |  コメント(0)  |  リブログ(0)
1 | 2 | 3 | 4 | 5 |最初 次ページ >> ▼ /

AD

ブログをはじめる

たくさんの芸能人・有名人が
書いているAmebaブログを
無料で簡単にはじめることができます。

公式トップブロガーへ応募

多くの方にご紹介したいブログを
執筆する方を「公式トップブロガー」
として認定しております。

芸能人・有名人ブログを開設

Amebaブログでは、芸能人・有名人ブログを
ご希望される著名人の方/事務所様を
随時募集しております。