2009-07-12 22:37:40
テーマ:映画音楽

”Make Her Mine”のベースラインを考える (2):Aパート

 イントロパートに引き続き、 ”Make Her Mine”のベースラインを考える。次は、Aパート。


作詞作曲:Hipster Image?

  4/4              
   Dm                Bb
   +   +   +   +     +   +   +   +    
G:-------2-7---5---|-3---------------|
D:-0---------------|-------3---------|
A:-----------------|---------1-------|
E:-----------------|-----------------|

   A7                F
   +   +   +   +     +   +   +   +    
G:---------2---0---|-----------------|
D:-------2---------|-3---------------|
A:-0---------------|-------3-----0---|
E:-----------------|---------1-------|

   Bb                Gm
   +   +   +   +     +   +   +   +    
G:---------3---2---|-0---------------|
D:-------3---------|---0-------------|
A:-1---------------|-----0-----------|
E:-----------------|-------3---1-----|

   Em7     A7        Dm
   +   +   +   +     +   +   +   +    
G:-----------------|-----------------|
D:-------------1---|-0---------------|
A:-----1---0-------|-----3-------0---|
E:-0---------------|---------0-------|


 イマイチダサいかなぁ。


■関連記事:


”Make Her Mine”のベースラインを考える
スウィングガールズ&HipsterImage「Make Her Mine」
YUI "Oh My God"
高幡不動尊の”お護摩”

ケヴィン・エアーズ「双子座のこども(Gemini Child)」

ヤードバーズ「幻の十年」
Cream "Crossroads"
Brian Eno "Sombre Reptiles"
木南晴夏嬢をめぐる音楽街道をゆく
草なぎ剛 in 檜町公園「シンゴー、シンゴー」フレーズ解析


このコンテンツは批評目的によるHipser Imageの音楽の引用が含まれています。音楽の著作権は著作権者に帰するものです。また、個人的耳コピのため音楽的には間違った解釈である可能性もありますが、故意に著作権者の音楽の価値を低めようとするものではありません。】

いいね!した人  |  コメント(2)  |  リブログ(0)
2005-11-15 10:00:19
テーマ:映画音楽

昼ドラ「デザイナー」(風味堂「I believe in your love」)

【CD】ママのピアノ / 風味堂



風味堂, 渡和久, 森俊之
ママのピアノ(初回限定盤)

●便利なコンビニ後払いが可能!ファーストコンサート DASH!KOKU
 ゴールデン☆ベスト国生さゆり SINGLES<CD/邦楽>
国生さゆり/HELLO!アメリカ

 いよいよ第7週目に突入。亜美の父である青石雅也がとうとう死んでしまい、落ち込む亜美。朱鷺の亜美への仄かな愛。不可思議な挙動を見せる柾。 いよいよドラマは佳境に入ってきた。一条ゆかり先生の作品は、これなんだよなぁ、このドロドロした女性&男性の情念渦巻く激情の世界。そのリズムに乗せられて、一条作品はどれも一気に読めてしまうという。


 さて、今日はドラマ主題歌、風味堂「I believe in your love」のコード進行をチェックしよう。キーはGメジャー。実力葉らしく、非常にコードアレンジの勉強になる一曲だ。


【A】
|4/4 G |G |Em7 |Em7|
|C |D7 |G |G|

 「オー、マイ・ベイベー」の部分。コード進行はⅠ-Ⅵm7-Ⅳ-Ⅴ7-Ⅰの循環コード(参照 )。


【B】

|C |C |Bm7 |Em7-D7|
|Am7-Bm7 |C |Am7-Bm7-C-C#dim |D7|

 「壊れれそうな」のブリッジ。コード進行は、


 Ⅳ-Ⅲm7-Ⅵm7-Ⅴ7-Ⅱm7-Ⅲm7-Ⅳ-Ⅱm7-Ⅲm7-Ⅳ-#Ⅳdim-Ⅴ7


 で一見複雑に見えるが、「Ⅱm7-Ⅲm7-Ⅳ(=Am7-Bm7-C)」部分は繰り返されているだけ、


 Ⅳ-Ⅲm7-Ⅵm7-Ⅴ7-Ⅱm7-Ⅲm7-Ⅳ-#Ⅳdim-Ⅴ7


 音階的上昇(Ⅲm7-Ⅳ-#Ⅳdim)をツーファイブの複雑化と解釈して、


 Ⅳ-Ⅲm7-Ⅵm7-Ⅴ7-Ⅱm7-Ⅴ7


途中のⅤ7(これはヴァンプ的装飾なんだろうな。理論的じゃないけど)を飛ばすと、


 Ⅳ-Ⅲm7-Ⅵm7-Ⅱm7-Ⅴ7


 「短二度下降ののち完全四度上昇を繰り返す」定番パターン(参照 )に他ならない。


【C】

|G-Am7 |Bm7 |C-Ebdim |Em7-D7|
|C-Bm7 |Am7-D7 |G |G|


 「I believe..」のサビ。1~4小節はⅠ-Ⅱm7-Ⅲm7-Ⅳ-♭Ⅵdim-Ⅵm7-Ⅴ7。これは単純化するとⅠ-Ⅲm7-Ⅳ-Ⅵm7で、Ⅱm7は音階上経過的に挿入、♭Ⅵdim=ⅣdimだからⅣ→Ⅳdimと経過的に挿入し、Ⅵm7への流れをスムーズにしているアレンジ。5~8小節はⅣ-Ⅲm7-Ⅱm7-Ⅴ7-Ⅰの、「短二度下降→完全四度上昇繰り返し」のⅥm7省略パターン。

 ジャズをちゃんと勉強したという風味堂らしい洗練された楽曲だ。しかし国生さゆりの演技が非常にいいと思う。素晴らしい女性に成長したなぁ。


■関連リンク:風味堂オフィシャルページ

■関連記事:デザイナー  楽園をめざして(風味堂)

☆音楽解析の続編は『コチラ』 にて!

[ このコンテンツは批評目的による素晴らしいバンド、風味堂の音楽の引用が含まれています。音楽の著作権は著作権者に帰するものです。また、個人的耳コピのため音楽的には間違った解釈である可能性もあります。著作権者主体者の権利、音楽の美学を侵害した場合いかなる修正・削除要請にも応じます】

いいね!した人  |  コメント(42)  |  リブログ(0)
2005-11-07 12:00:24
テーマ:映画音楽

ドラマ30「デザイナー」


一条 ゆかり
デザイナー

一条 ゆかり
デザイナー (前編)

一条 ゆかり
デザイナー (後編)

一条 ゆかり
デザイナー

 TBS系で13:30から放映中の少女漫画の古典、一条ゆかり原作「デザイナー」が面白い。モデルからデザイナーに転進した主人公・亜美を松本莉緒嬢、トップデザイナー鳳麗香を国生さゆり女史を演じているほか、元ハリケンジャーの塩谷瞬(パトロン)、元仮面ライダーギャレン、天野浩成らが脇を固めている。


 一条ゆかり作品はどれも人間の情念(嫉妬・欲望・裏切りなど)を見事に描写しており、松本莉緒嬢と国生さゆり女史の人選が最高だ。ハラハラするような心理戦が見事に描けているから、一気に見れてしまう。


 音楽は「極道の妻たち」、大河ドラマ「北条時宗」などの音楽を担当した栗山和樹氏が担当しており、これが結構素晴らしい。趣味のいい室内楽風BGMから、基本的なロック・バンド・セットによるファンク曲まで、ストーリー展開に即した音楽を提供し、ドラマを盛り立てている。


 今日は、番組開始時に流れる曲をギターでコピーしてみる。シンセサイザーから始まり、ヴァイオリンが旋律をとる曲で、ドラマの始まりの緊迫感を高めてくれる。キーはGマイナー。

   Gm
   +   +   +   +     +   +   +   +
e:-6---5-----------|-----------------|
B:---------6-------|-----------------|
G:-------------5---|-----------------|
D:-----------------|-----------------|
A:-----------------|-----------------|
E:-3---3-3-3---3-3-|-3--3-3--3---3-3-|
   Eb
   +   +   +   +     +   +   +   +
e:-6---5-----------|-----------------|
B:---------6-------|-----------------|
G:-------------5---|-----------------|
D:-----------------|-----------------|
A:-6---6-6-6---6-6-|-6---6-6-6---6-6-|
E:-----------------|-----------------|
   Cm                Dm7
   +   +   +   +     +   +   +   +
e:-------------8---|-------------5---|
B:-11--10----------|---------8-------|
G:---------10------|-----------------|
D:-----------------|-0---0-0-0---0-0-|
A:-----------------|-----------------|
E:-8---8-8-8---8-8-|-----------------|
   Eb                F7
   +   +   +   +     +   +   +   +
e:-6---5-------8---|-----------------|
B:---------6-------|-----------------|
G:-----------------|-----------------|
D:-----------------|-----------------|
A:-----------------|-8---8-8-8---8-8-|
E:-6---6-6-6---6-6-|-----------------|


 コード進行は

 

 Ⅰm-♭Ⅵ-Ⅳm-Ⅴm-♭Ⅵ-♭Ⅶ7


 で、トニックマイナーから下降(マイナー版循環コードパターン:参照 :ただし♭Ⅶヌキ)したのち上昇(マイナー版逆循環コードパターン:参照 )してく形式。

 いよいよ全40話の後半に入ってきている。今後のドラマも見逃せない。


■関連リンク:ドラマ30「デザイナー」公式ページ  栗山和樹氏公式サイト

■関連記事:のだめカンタービレ  黄桜酒造「かっぱの歌」

☆音楽解析の続編は『コチラ』 にて!

【このコンテンツは批評目的による栗山和樹氏の音楽の引用が含まれています。音楽の著作権は著作権者に帰するものです。また、個人的耳コピのため音楽的には間違った解釈である可能性もありますが、故意に著作権者の音楽の価値を低めようとするものではありません。著作権者主体者の権利、音楽の美学を侵害した場合いかなる修正・削除要請にも応じます】

いいね!した人  |  コメント(3)  |  リブログ(0)
2005-11-03 22:00:25
テーマ:映画音楽

スクラップ・ヘブン:フジファブリック「蜃気楼」


フジファブリック
茜色の夕日

鈴木 さゆり
スクラップヘブン

【このコンテンツは批評目的によるフジファブリック氏の音楽の引用が含まれています(個人的に大好きなバンドです。)。音楽の著作権は著作権者に帰するものです。また、個人的耳コピのため音楽的には間違った解釈である可能性もありますが、故意に著作権者の音楽の価値を低めようとするものではありません。著作権者主体者の権利、音楽の美学を侵害した場合このページに限り、いかなる修正・削除要請にも応じますので、ご教授ください】


 加瀬亮、オダギリ・ジョー、栗山千明が出演する現在公開中の映画、 「スクラップ・ヘブン(Scrap Heaven)」。観に行くかどうかは悩み中だが、エンディング・テーマを私が気になっているバンド、フジファブリックが手がけている。


 映画のTV-CMで聴けるフジファブリック「蜃気楼」のコード進行をチェック。


*** *** *** *** 
|4/4 Am7-D7 |C-D7 |G |G|



 この後ろ向きな歌詞がこのバンドの魅力だ。コード進行は、キーGメジャーで、


 Ⅱm7-Ⅴ7-Ⅳ-Ⅴ7-Ⅰ


 観に行こうかな? どうしよう。


■関連リンク:スクラップ・ヘブン公式サイト  フジファブリック公式ホームページ

■関連記事:オダギリ・ジョー「若武者」  仮面ライダークウガ  新選組! メインテーマ  栗山千明「マキアージュ」

いいね!した人  |  コメント(0)  |  リブログ(0)
2005-11-02 12:00:17
テーマ:映画音楽

チェ・ジウ「ピアノを弾く大統領」


ピアノを弾く大統領

【このコンテンツは批評目的による「ピアノを弾く大統領」の音楽の引用が含まれています(個人的に大好きなバンドです。)。音楽の著作権は著作権者に帰するものです。また、個人的耳コピのため音楽的には間違った解釈である可能性もありますが、故意に著作権者の音楽の価値を低めようとするものではありません。著作権者主体者の権利、音楽の美学を侵害した場合このページに限り、いかなる修正・削除要請にも応じますので、ご教授ください】


 チェ・ジウが主演するラブコメディ。「ピアノを弾く大統領」。B級映画だがサッパリした爽快感が残る楽しい作品だ。TV-CMでも聴けるピアノのテーマ曲をギターで弾いてみよう。キーはCメジャー。

        C                 Am7
  +     +   +   +   +     +   +   +   +
e:0-1-|-3---------------|-5---8-------3---|
B:----|-----1----------1|-5---------------|
G:----|---0-0---------0-|-5---------------|
D:----|-2---2-----------|-5---------------|
A:----|-3---3-----------|-0---------------|
E:----|-----------------|-----------------|
   F9                Gsus4   G7
   +   +   +   +     +   +   +   +
e:-3---------------|-----------------|
B:-1-------------0-|-1---1---0---0---|
G:-2-----------2---|-0---0---0---0---|
D:-3---------------|-0---0---0---0---|
A:-----------------|-2---2---2---2---|
E:-----------------|-3---3---3---3---|


 コード進行はⅠ-Ⅵm7-Ⅳ9-Ⅴ7の循環コード進行(参照 )。チェ・ジウ、笑うとパーマをかけていた時代の原田知世に似ている。


■関連記事:オバジ  キシリトールのど飴  テアテ(おいしいコラーゲン一万)

いいね!した人  |  コメント(0)  |  リブログ(0)
2005-10-31 20:00:17
テーマ:映画音楽

ジェシカ・アルバ「イントゥ・ザ・ブルー」


ダーク・エンジェル ハンディBOX

ダンス・レボリューション


Tangerine Dream
Optical Race

【このコンテンツは批評目的による映画イントゥザブルーの音楽の引用が含まれています。音楽の著作権は著作権者に帰するものです。また、個人的耳コピのため音楽的には間違った解釈である可能性もありますが、故意に著作権者の音楽の価値を低めようとするものではありません。著作権者主体者の権利、音楽の美学を侵害した場合このページに限り、いかなる修正・削除要請にも応じますので、ご教授ください】

 11月5日、20世紀フォックス系で公開される映画「イントゥ・ザ・ブルー(Into the Blue)」。バハマのダイビングインストラクター達が、カリブの海の底で沈没船のかけらを発見したあとの、”金塊騒ぎ”アクション映画といった感じのようだ。「ファンタスティック・フォー」「シン・シティ」と立て続けに出演している、今最もホットな女優ジェシカ・アルバの水着姿が魅力的。


 今日はこの映画予告編(コチラで視聴 )冒頭で流れるギター・フレーズをコピー。キーはDメジャー。6弦をDに落としてチューニングして弾いてみよう。

   D
   +   +   +   +     +   +   +   +
e:-----------------|-----------------|
B:-----3-----------|-----------------|
G:-------4-2---4-2-|-0---2-0---------|
D:-0---------------|---------4---5-4-|
A:-----------------|-----------------|
D:-0---------------|-0---------------|
   +   +   +   +     +   +   
e:-----------------|---------|
B:-----------------|---------|
G:-----------------|---------|
D:-2---4-2-4---2-4-|-5---4-5-|
A:-----------------|---------|
D:-0---------------|-0-------|

 音楽担当は元タンジェリン・ドリーム(Tangerine Dream)のポール・ハスリンジャー(Paul Haslinger)が担当。エリシャ・カスバートの「ガール・ネクスト・ドア」の音楽も担当していたようだ。


■関連リンク:イントゥ・ザ・ブルー公式ページ

■関連記事:ガール・ネクスト・ドア

いいね!した人  |  コメント(0)  |  リブログ(0)
2005-10-30 20:00:32
テーマ:映画音楽

小林聡美+大林宣彦「廃市」(柳川、日本のベニス)


廃市 デラックス版

廃市

福永 武彦
廃市・飛ぶ男

廃市/北京的西瓜

大林 宣彦
なごり雪

大林 宣彦, 小田桐 昭
日日世は好日2001―五風十雨日記〈巻の1〉同時多発テロと『なごり雪』



【楽天市場】旅行・出張・ホテル・チケット



博多のススメ―大陸風が染みてる宵っぱり食都

博多学
柳川名物炙りうなぎ笹めし S25
柳川名物うなぎのセイロ蒸し YS30
柳川名物 うなぎの蒲焼とカリカリボーン
福岡県発 うなぎ職人江口さんが焼き上げる「鰻遊之庄」うなぎセイロ蒸し
柳川でしか食べられなかった特上鰻のセイロ蒸しセット

 書くのが遅くなったが、今年(2005年)の夏休み、フェリーで九州まで行った際(参照 )、福岡県柳川に行った。竹中直人監督の「東京日和」(1997年)にて「日本のベニス」と例えられた水郷の町、柳川。江戸時代の城下町=堀がそのまま残り、町のいたるところを水路が走っている、水に浮いたような町。


 さながら水に浮いた灰色の柩である


 と柳川出身の詩人、北原白秋は著書「思い出」のなかで語っている。まさしくそのような町だ。


 私がこの町に興味を持ったのは、福永武彦原作、大林宣彦監督、小林聡美主演映画「廃市」(1983年)を見てから。小林聡美が15歳で映画デビューした「転校生」の一年後撮られた作品。卒業論文を書くために静かな環境を求め”寂れた町”柳川を訪れた学生(演:山下規介)が、旅館姉妹(妹が小林聡美、姉が根岸季衣)、姉の夫(演:峰岸徹)、その情婦(演:入江若菜)らの複雑な人間関係を垣間見る物語。


 姉妹という人間関係と嫉妬、田舎生活への諦念、打ち明けられない微妙な想い…。福永武彦作品らしく、テーマは滅茶苦茶重い、重すぎて暗すぎるほどなのだが、「滅び行く町」として描かれる舞台=柳川の情景がとてつもなく寂しく、美しい。映画を見て以来、絶対一度は行ってみたい場所だったのだ.


 福岡から九州自動車道を約一時間で柳川到着。まずは名物川下りを体験。7月の暑い日だった。日傘を頭に被り舟にのり、船頭さんの案内で水路を進む。そう、10月登場のアニメ、ARIAのウンディーネ がイメージ的にかなり近い(船頭はオッサンだが)。小さな橋をからだをかがめて潜り、映画にも出てきた「殿の倉」、「御花」、「並倉」などの古めかしい建物に興奮。柳川観光協会のサイト で写真を見てみて欲しいが、本当に素晴らしい光景なのだ。また、音楽的にも、あのオノ・ヨーコの実家があったり、北原白秋の数々の作品を船頭が歌ったり(レアな曲も満載)して、本当に楽しめる。


 川下りのあとは、名物「うなぎのせいろむし」を本吉屋 で。アツアツで上手い。地酒の冷酒と一気に胃袋へ流し込み幸せ気分。江戸時代の城壁を眺めながら。


 そんな映画「廃市」のテーマ曲(大林監督の作曲)をギターでアレンジしてみた。

[I]
  G#dim                   G
  +     +   +   +   +     +   +   +   +
e:----|-----------------|-----------------|
B:3-3-|-3-----------3-3-|-3-----------3-3-|
G:4-4-|-4-----------4-4-|-4-----------4-4-|
D:----|-----------------|-----------------|
A:----|-----------------|-----------------|
E:4-4-|-4-----------4-4-|-3-----------3-3-|
   GdimAm  Dm  G7    C       Em7
   +   +   +   +     +   +   +   +
e:-----------------|-----------------|
B:-3---1-0---------|---------0-------|
G:-4---0-0-2---0---|---------------1-|
D:-------------0-3-|-2-----------2---|
A:-----0-2-3-------|-3---------------|
E:-4-------------3-|---------0-------|

 少し「火曜サスペンス劇場」のテーマを思わせるようなイントロ。オーケストラがクラスタ(?)で不協和音(ディミニッシュコードだが)を冒頭から鳴らし、ドラマだからこその衝撃性を演出する。
[A]
   Am            Dm
   +   +   +     +   +   +   
e:-----------0-|-1-----------|
B:-------------|-------0---1-|
G:-2-------2---|-2---2-------|
D:-2---2-------|-0---0-------|
A:-0---0-------|-------------|
E:-------------|-------------|
   G7            C
   +   +   +     +   +   +   
e:-------------|-0---------3-|
B:-3---------3-|-------1-----|
G:-------0-----|-------------|
D:-------------|-2---3-------|
A:-2---2-------|-3---3-------|
E:-3---3-------|-------------|
   F             Em7
   +   +   +     +   +   +   
e:-5-----7---8-|-7---3-----3-|
B:-------------|-------------|
G:-5---5-------|-------------|
D:-3---3-------|-------------|
A:-------------|-------------|
E:-------------|-0---0-------|
   A
   +   +   +
e:-5-----------|
B:-2-----------|
G:-2-----------|
D:-2-----------|
A:-0-----------|
E:-------------|

 テーマ部はAマイナーの3/4拍子。オリジナルではバイオリンの旋律が美しい。


 Ⅰm-Ⅳm-♭Ⅶ7-♭Ⅲ-♭Ⅵ-Ⅴm7-Ⅰ


と、最後でAメジャーに同主調転調している。大林監督は少年時代、プロのピアニストを目指していたため、音楽を知っている。初期の映画作品ではこのように自分で曲を書いていた。「時をかける少女」の「桃栗三年~」も大林監督が作曲したものだ。

[B]
   Dm7     G7  C     D
   +   +   +   +     +   +   +   +
e:-1------0-30-----|-2---------------|
B:--3-10---3---1---|-3---------------|
G:---2--02---------|-2---------------|
D:-----------------|-0---------------|
A:-----------------|-----------------|
E:-----------------|-----------------|

 最後、4/4拍子に戻って終わる。この曲は、ビデオ版の「転校生」では喫茶店(尾道のワッフル専門店「こもん」)で流れるBGMとしても使用されている。オリジナル映画では角川映画(大林監督作品)「ねらわれた学園」のテーマ曲を使っていたが、著作権の関係で使用できなかったためである。

 映画にも出てくるが、毎年恒例の「白秋祭」が11月1~3日執り行われる。映画で見たが、水路に提灯を下げた舟が幾つも並び、水面に映る花火を眺める。一度行ってみたい。九州に訪れるかたは是非一度、柳川に足を運んでみて欲しい。柳川素晴らしい。



■関連リンク:柳川観光協会廃市@映画生活

■関連記事:ホリエモンと尾道  G線上のアリア  青春デンデケデケデケ  小林聡美「ポポンS」

☆音楽解析の続編は『コチラ』 にて!

【このコンテンツは批評目的による大林宣彦氏(彼に侵害といわれたならば死んでもいいです)の音楽の引用が含まれています。音楽の著作権は著作権者に帰するものです。また、個人的耳コピのため音楽的には間違った解釈である可能性もありますが、故意に著作権者の音楽の価値を低めようとするものではありません。著作権者主体者の権利、音楽の美学を侵害した場合このページに限り、いかなる修正・削除要請にも応じますので、ご教授ください】

いいね!した人  |  コメント(0)  |  リブログ(0)
2005-10-29 18:00:10
テーマ:映画音楽

嬢王:ED曲Ring「Perpetual Snow」


Vo Vo Tau, Ryo-thing, Ring
MUSILIC GAME(期間限定スペシャルプライス盤)

Vo Vo Tau
Vo Vo Tau 01hz



倉科 遼, 紅林 直
嬢王 1 (1)

倉科 遼, 紅林 直
嬢王 2 (2)

倉科 遼, 紅林 直
嬢王 3 (3)

【このコンテンツは批評目的によるボボタウの音楽(ヒットしそう)の引用が含まれています。音楽の著作権は著作権者に帰するものです。また、個人的耳コピのため音楽的には間違った解釈である可能性もありますが、故意に著作権者の音楽の価値を低めようとするものではありません。著作権者主体者の権利、音楽の美学を侵害した場合このページに限り、いかなる修正・削除要請にも応じますので、ご教授ください】


 ビジネスジャンプ連載の倉科 遼&紅林 直原作コミックをドラマ化、毎週金曜日深夜24:12からテレビ東京で放映中の「嬢王」。父親の会社倒産により借金1億5千万円を背負った20歳女性が、返済のためにキャバクラ界に身を投ず。そこで繰り広げられる人間関係を描いた物語だが、「ギルガメッシュ・ナイト」ぶり? 日本のTV局の深夜番組で、画面に(大和撫子の)”リアル・ビーチク”が登場することで話題を呼んでいるようだ。 その他、下着姿、ランジェリー姿の女の子もワンサカ。注目のソフト・エロ番組だ。特に蒼井そらの、(お約束)体当たりの演技が注目に値する。


 さて、本日は同番組のエンディング曲、非常にユニークなバンド、ボボタウ(Vo Vo Tau)のリング(Ring)が歌う、「パーペチュアル・スノウ(Perpetual Snow)」を耳コピ。歌詞の聴き取り不正確な部分あり、その点はご了承を。キーはEbメジャー、クリスマスの恋人達の風景を歌ったしっとりしたナンバーだ。



【A】

*** ***  *** *** 
|4/4 Eb |Eb |Cm7 |Cm7|
*** *** *** *** 
|Ab |Gm7 |Fm7 |Bb7|

 ピアノの伴奏のみのバース。コード進行は、


 Ⅰ-Ⅵm7-Ⅳ-Ⅲm7-Ⅱm7-Ⅴ7


トニック内変換(Ⅰ→Ⅵm7)からサブドミナント(Ⅳ)に行った後は、「短二度下がって完全四度上昇を繰り返す」定番パターン(参照 )。Ⅲm7-Ⅱm7の間にⅥm7が省略されているが。この進行、本当に多いネ。今(2005年)一番、使用頻度の高いコードパターンといえるだろう。


【B】

*** ***  *** ***
|Ab |Gm7 |Ab7 |Gm7|
*** *** *** ***
|Ab |Gm7 |Fm7 |Bb7|

 ブリッジ。


 Ⅳ-Ⅲm7-Ⅱm7-Ⅴ7


これも同じパターン。初めのⅣ-Ⅲm7 を3回繰り返している。


【C】

*** *** *** ***
|Eb |Eb |Cm7 |Cm7|
|Ab |Gm7 |Fm7 |Bb7|

 サビ。TVでは最後まで聴き取ることが出来ないが、おそらく【A】と全く同じ構造だと思う。

 同曲は11月2日発売のボボタウの3rd アルバムに収録予定。


☆音楽解析の続編は『コチラ』 にて!

■関連リンク:テレビ東京「嬢王」公式ページ

■関連記事:美少女戦士セーラームーン

いいね!した人  |  コメント(0)  |  リブログ(0)
2005-10-16 22:00:39
テーマ:映画音楽

ティム・バートンのコープス・ブライド


Tim Burton's Corpse Bride [Original Motion Picture Soundtrack]

Mark Salisbury
The Art of Tim Burton's Corpse Bride


Tracey Ullman
The Best of Tracey Ullman

Tracey Ullman
The Best Of

Tracey Ullman
Takes on the Hits

【このコンテンツは批評目的による「コープス・ブライド」の音楽からの引用が含まれています。音楽の著作権は著作権者に帰するものです。また、個人的耳コピのため音楽的には間違った解釈である可能性もありますが、故意に著作権者の音楽の価値を低めようとするものではありません。著作権者主体者の権利、音楽の美学を侵害した場合このページに限り、いかなる修正・削除要請にも応じますので、ご教授ください】


 10月22日公開予定の「ティム・バートンのコープス・ブライド(Tim Burton's Corpse Bride)」。ジョニー・デップ、カーターエミリー・ワトソンが声優として出演している。予告篇&CMで流れている音楽(コチラで視聴 )を研究。


 物悲しいマイナー曲で、キーはAマイナー、6/8拍子。ギターで旋律を弾いてみよう。

   Am            Bm7b5
   +   +   +     +   +   +
e:-0-----0-----|-------------|
B:-----4-----1-|-4-0---------|
G:-------------|-------------|
D:-------------|-------------|
A:-------------|-------------|
E:-------------|-------------|
   E7            Am
   +   +   +     +   +   +
e:-------------|-------------|
B:-3---1-3---0-|-1-----------|
G:-------------|-------------|
D:-------------|-------------|
A:-------------|-------------|
E:-------------|-------------|
   Fm7           
   +   +   +     +   +   +
e:-------------|-------------|
B:---1-0-1-----|-1-----------|
G:-----------1-|-------------|
D:-------------|-------------|
A:-------------|-------------|
E:-------------|-------------|
   Am
   +   +   +     +   +   +
e:-------------|-------------|
B:---1-0-1---1-|-1-----------|
G:-------------|-------------|
D:-------------|-------------|
A:-------------|-------------|
E:-------------|-------------|


 コード進行は、1~4小節

 Ⅰm-Ⅱm7b5-Ⅴ7-Ⅰm
と、パルナスのCM音楽 の「甘いお菓子の~♪」部分と(ほぼ)同じコードパターン。物悲しいコード進行の定番だ。5~8小節は、

 ♭Ⅵm7-Ⅰm

♭Ⅵはメジャーのはずだが、これをマイナーにすることにより、スケールに対する1の音(=A)が♭されてAbとなり、このアレンジが寂しさをいっそう際立たせているようだ。


 19世紀のヨーロッパを舞台とした悲恋の物語に相応しい短調曲。結構マイナー曲好きのツボを刺激された。映画、観に行きたい。なお、(実は)イギリスパブ・ロックの元歌姫、トレイシー・ウルマン(Tracey Ullman ←懐かしい!)も声優として登場するようだ。

■関連リンク:コープス・ブライド公式ページ

■関連記事:パルナス ニック・ロウ「リトル・ヒットラー」

いいね!した人  |  コメント(0)  |  リブログ(0)
2005-10-10 18:00:35
テーマ:映画音楽

「新選組!」メインテーマ


NHK 大河ドラマ 「新選組!」 オリジナル・サウンドトラック

新選組 ! 完全版 第壱集 DVD-BOX

NHK大河ドラマ 新選組 ! スペシャル DVD-BOX

新選組を旅する―平成16年度大河ドラマ

森村 誠一
新選組〈上〉

赤間 倭子
新選組副長助勤 斎藤一

みなもと 太郎
冗談新選組

【このコンテンツは批評目的による三谷幸喜氏、服部隆之氏、広上淳一氏の音楽からの引用が含まれています。音楽の著作権は著作権者に帰するものです。また、個人的耳コピのため音楽的には間違った解釈である可能性もありますが、故意に著作権者の音楽の価値を低めようとするものではありません。著作権者主体者の権利、音楽の美学を侵害した場合このページに限り、いかなる修正・削除要請にも応じますので、ご教授ください】

 私の通勤経路。JR国立駅で中央線に乗り、終点の東京駅で降りる。多摩から東京ど真ん中への移動。毎日これを繰り返している。


 会社は東京国際フォーラムの方面にあり、中央線を降りたあと、動く歩道などを使用して、京葉線方面まで歩く。夏休み、金曜日などはディズニーランド(参照 )帰りの人々がいっぱいだ。みんな嬉しそうな顔をしている。「いいなぁ」と思いつつ、仕事で疲れてトボトボ歩く。京葉線なんて、まず自分には縁が無い。会社をサボって、ディズニーランドへ行くほどの元気は、もう無い。


 そんな縁遠い京葉線。だがある日、驚くべきことに気が付いた。京葉線ホームの看板に、「武蔵野線」という文字があるではないか。知らなかった。自分が利用する国立駅の隣の駅、西国分寺駅。ここを通る武蔵野線がなんと、千葉の西船橋を経由して東京駅にまで来ていたとは。知っている人にとっては何でもないことだろうが、ちょっとビックリ。


 「仕事が早く終わったら、一度武蔵野線で帰ってみよう」と思うようになった。「おそらく3時間くらいはかかると思っておいたほうがよいだろうなぁ」。最低でも仕事が21時には終わらないと無理だ(結構夜型の職場だ)。


 先週チャンスが訪れた。私は武蔵野線に東京駅から乗り込む。中央線とは車両の仕様も違う。扉の横にガラスのようなものが貼ってある。出発。ちょっとした旅行のようないい気分だ。


 風景が違う。電車に乗っている人々が何となく異国の人々のようだ。話し掛けたら、日本語がもしかしたら通じないんじゃないだろうか? なんてことを考えたりする。そういえば、毎日乗っている中央線で、景色や同乗客の顔を観察するなんて、もう暫くやっていないなぁ。単なる会社帰りなのに楽しい気分。

 馴染みの無い駅名。知らない地名。初めて聞く駅名。その中に聞いたことのある地名が。


 みなみながれやま~ みなみながれやま~


 流山。新選組局長 近藤勇が「自首」、実質的に新選組解体の地となった場所だ。様々な歴史書・小説により「捕縛」ともされる。近藤勇の描かれ方に応じて、そのニュアンスが変わってくる。大久保大和という偽名をつき通していたが、元新選組 加納鷲尾が見破って近藤勇は青ざめた、とするもの。潔く自分から「近藤勇」と名乗って自首したとするもの、色々読んだが様々。


 昨年放映の三谷幸喜版「新選組!」では、「大久保大和」として尋問されている近藤の前に、加納鷲尾が現れる。加納は「こいつが近藤か?」と問われるが、何も答えない。近藤(香取慎吾演)の方から「加納君、お久しぶりです」と一声、「ご無沙汰しています、局長」と頭を深く下げる加納。どちらのプライドも傷つけない、三谷氏らしい粋な脚本だったなぁ、としみじみ思う。本当にあのシーンはよかった。


 ということで、流山に因んで今日はジョン・健・ヌッツォ歌う「新選組! メインテーマ」の歌が入っている部分を弾き語ろう。


 作詞:三谷幸喜

 作曲:服部隆之

 指揮:広上淳一

 演奏:NHK交響楽団


【A】

ラ*** *** *** ***
|4/4 C |G/D-Gm/Bb |Ab |Dm7-G7|
*** ララ*** *** ***
|C |G/D-Gm/Bb |Ab |Gm7|


 キーはCメジャーからはじまり、1~4小節

 Ⅰ-Ⅴ-Ⅴm-♭Ⅵ-Ⅱm7-Ⅴ7

サブドミナントマイナー♭Ⅵの挿入が特徴的だ。繰り返すが、8小節が異なり、Ⅴm7となる。


【B】

*** *** ***
|Gb |Ebm |Bbm |Bbm|
*** *** ***  ***
|Gb |G |Dm7 |Dm7/F|


 ちょっと構造が複雑・難解なのですが、ここでキーは調二度下のBbマイナーに移調していると思う。1~4小節は

 ♭Ⅵ-Ⅳm-Ⅰm

その後、

 ♭Ⅵ-Ⅵ-Ⅲm7

なのだが、Dm7(=Ⅲm7)の部分では、【C】パートの調、Gマイナーに移調が完了している。そうすると6小節目のGメジャーの響きが謎、というか非常にトリッキー。理論的に説明できないが、この挿入が移調をドラマチックに際立たせている。

【C】

き*** *** *** ***
|Eb |Gm |Eb |Bb|
*** 熱き 思い *** *** ***
|Fm7 |Dm7b5 |Gb |Abm7/Eb|
*** ***  *** ***
|Db7 |DbM7 |Bbm7 |Db7/Ab|
***
|C|

 ここはキー、Gマイナー。だが1~6小節間だけで、7~12小節はキー、Gbメジャー。そして最終的に13小節で元のキーCメジャーに戻る、という非常に複雑な構造と思う。


▼1~6小節:キーGm

   ♭Ⅵ-Ⅰm-♭Ⅵ-♭Ⅲ-♭Ⅶm7-Ⅴm7b5

 サブドミナントマイナー→トニックマイナーを繰り返し、♭Ⅶm7-Ⅴm7b5で、Gbメジャーに転調する。


▼7~12小節:キーGb

   Ⅰ-Ⅱm7-Ⅴ7-ⅤM7-Ⅲm7-Ⅴ7

 最後のⅤ7(=Db7)から半音下降して、13小節目のCメジャーにつながる。


 ううむ、難しい。勉強不足を痛切に感じます。音楽理論、もっとちゃんと勉強しよう。しかし、新選組の故郷、多摩と終焉の地、千葉・流山を結ぶ鉄道があったとは。結局普段中央線で40分のところ、約120分はかかって帰宅した。


■関連記事:オダギリ・ジョー「若武者」

いいね!した人  |  コメント(2)  |  リブログ(0)

AD

ブログをはじめる

たくさんの芸能人・有名人が
書いているAmebaブログを
無料で簡単にはじめることができます。

公式トップブロガーへ応募

多くの方にご紹介したいブログを
執筆する方を「公式トップブロガー」
として認定しております。

芸能人・有名人ブログを開設

Amebaブログでは、芸能人・有名人ブログを
ご希望される著名人の方/事務所様を
随時募集しております。