2009-05-07 21:39:31
テーマ:寺島咲

寺島咲、黒川智花、福田沙紀、岩田さゆり in 3年B組金八先生第6シリーズ「心の雨」










 先日、草刈麻有出演の金八先生第8シリーズ について書いた。さて、2004年10月15日から2005年3月25日まで放映された「3年B組金八先生 第7シリーズ」が、現在TBSchにて再放送中であり、また見ている。


 小山内美江子脚本の”過激さ”極まれる 第7シリーズはショッキングに「薬物/ドラッグ」をテーマとしており、父親は薬物依存かつ家庭内暴力をふるう母親をもつ、丸山しゅう(演:八乙女光)の心境が緻密に描かれており見る度に心が締め付けられる感じだ。


 そのしゅうのテーマ曲が、劇中歌「心の雨(Il pleure dans mon coeur)」。これはフランス詩人、”デカダンスの教祖”、ポール・マリー・ヴェルレーヌ(Paul Marie Verlaine)(1844年3月30日~1896年1月8日)の詩をもとに、城之内ミサさんが作曲、編曲したもの。演奏は国立・パリオペラ座管弦楽団が特別編成で行っている豪華なもので、城之内ミサ氏は指揮も行っている。訳詞はこちらなど で読むことができる。


 メロディラインはストリングスにより演じられているのだが、今日はこの曲のサビをギターでコピーしてみる。



作曲&編曲:城之内ミサ

  4/4              
       C                 Dm                 
  +     +   +   +   +     +   +   +   +    
e:0-1-|-3---0-1-3-5-1-0-|-1-----0-3-1-0---|
B:----|-1---------------|-3---3---------3-|
G:----|-----------------|-2---------------|
D:----|-2---------------|-0---------------|
A:----|-3---------------|-----------------|
E:----|-----------------|-----------------|

   Am                E7
   +   +   +   +     +   +   +   +    
e:-----------------|-0---------------|
B:-1-----1-3-1-0---|-0---------------|
G:-2---2---------2-|-1---------------|
D:-2---------------|-2---------------|
A:-0---------------|-2---------------|
E:-----------------|-0---------------|

 コード進行は、

|I |IIm |VIm |III7|

 の
トニック→サブドミナント→トニック代理→トニック代理のメジャー化
という進行で、3~4小節目VI→IIIという長5度上昇(長4度下降)特有の「落ちる」感じが活きている。


 第7シリーズの生徒たちも豪華で、現大林映画のヒロイン寺島咲、「浅草ふくまる旅館」や「セクシーボイス・アンド・ロボ」など数え切れない出演作のある黒川智花、「ヤッターマン」の福田沙紀、「とろーりプリン」や「パズル」の岩田さゆりらが出演している。濱田岳もいい。



■関連記事: 草刈麻有「東京少女」

このコンテンツは批評目的による城之内ミサ氏の音楽の引用が含まれています。音楽の著作権は著作権者に帰するものです。また、個人的耳コピのため音楽的には間違った解釈である可能性もありますが、故意に著作権者の音楽の価値を低めようとするものではありません。】

いいね!した人  |  コメント(0)  |  リブログ(0)

AD

ブログをはじめる

たくさんの芸能人・有名人が
書いているAmebaブログを
無料で簡単にはじめることができます。

公式トップブロガーへ応募

多くの方にご紹介したいブログを
執筆する方を「公式トップブロガー」
として認定しております。

芸能人・有名人ブログを開設

Amebaブログでは、芸能人・有名人ブログを
ご希望される著名人の方/事務所様を
随時募集しております。