2009-04-26 10:17:28
テーマ:ジャニーズ

草なぎ剛 in 檜町公園「シンゴー、シンゴー」フレーズ解析








 新聞報道等において、草なぎ剛氏は檜町公園 にて、

「シンゴー、シンゴー」「バーカ、バーカ」「アイャァァ」

と叫んだと報じられているが、本日は、「シンゴー、シンゴー」フレーズを解析してみよう。


 無論私はそのフレーズを現場にてリアルタイムに聴いたわけではない。想像するほかはなく、こちらの過去音源データ より分析、想定を行うこととする。

 上記音源より草なぎ氏が「シンゴ」と発言してる箇所を、まずサンプリングしてみよう。映像の19~20秒目の部分をギターフレーズ化する。


作詞:草なぎ剛
作曲&編曲:草なぎ剛

  4/4              
   A
   +       +       +       + 
e:---------------------------------|
B:-----7-5-----5-5-5-5-------------|
G:-5-6-----6-6---------------------|
D:---------------------------------|
A:---------------------------------|
E:---------------------------------|
   o reshingotoann mari
  俺  シンゴとあんまり


 登場する音価は、


1) 第3弦5フレット=C
2) 第3弦6フレット=C#
3) 第2弦7フレット=F#
4) 第2弦7フレット=E

であり、Aメジャーのブルーススケールに配置されているため、Aメジャーコードとして和声化可能だろう。(1)はブルーノートだ。A7 13 としてテンションを交えてもグー。


 映像・音源サンプルでは確実に草なぎ氏の声/フレーズであるか否か確定しづらいが、当該場面を精査すると、


稲垣吾郎→同フレーズが流れているときの映像で口が動いていない。彼のフレーズではない。
森且行→同フレーズが流れているときの映像で口が動いていない。彼のフレーズではない。
香取慎吾→自分で「慎吾」とは言わないだろう。彼のフレーズではない。
中居正広→司会者であり、彼のフレーズではない。
木村拓哉→彼の声ではなさそう、彼のフレーズではない。


で、おそらく間違いないと想う。ここから、「シンゴ」部分のフレーズを取り出す。


作詞:草なぎ剛
作曲&編曲:草なぎ剛

  4/4              
   A 7 13
   +       +       +       + 
e:---------------------------------|
B:-7-5-----------------------------|
G:-----6---------------------------|
D:---------------------------------|
A:---------------------------------|
E:---------------------------------|
   shingo
   慎吾

 ここに、東京赤坂檜町公園での2009年4月23日深夜、演奏者が極度の状態であるという前提条件をもとに、発せられたであろうフレーズを再構築してみる。



作詞:草なぎ剛
作曲&編曲:草なぎ剛

  4/4              
   A 7 13
   +       +       +       + 
e:---------------------------------|
B:-7-5-------------7-5-------------|
G:-----6---------------6-----------|
D:-----7---------------5-----------|
A:---------------------------------|
E:---------------------------------|
   shingo          shingo
   シンゴー        シンゴー

 元来、草なぎ氏の音声は倍音があまり出ていないように想うため、重音とすべきか否かは悩んだのであるが、逮捕時「シンゴー、シンゴー」と絶叫と報じられているため、敢えて重音とした。最後の音価は、ルートAに対するbVIIであるGを混ぜて、草なぎ氏の孤独と悲しみと都会のブルーズを表現したつもりである。


 弾きまくってみると、草なぎ剛氏と、赤坂警察署、そして全日本の「別にええんやないの。家宅捜索までしなくて…」と同情するものたち全てが競演するコンサート会場(in 檜町公園)があなたの目の前に現れるはずだ!



 東京ミッドタウン周辺では、休日や週末様々なコンサート等が催されたたりするが、「シンゴー、シンゴー」のshoutは、たぶん史上最大の白熱ライブであった。



■関連リンク: 日刊スポーツニュース

■関連記事: SMAP 草なぎ剛&香取慎吾 Duet曲「僕の冷蔵庫」と檜町公園批評


このコンテンツは批評目的による草なぎ剛氏の音楽の引用が含まれています。音楽の著作権は著作権者に帰するものです。また、個人的耳コピのため音楽的には間違った解釈である可能性もありますが、故意に著作権者の音楽の価値を低めようとするものではありません。】

いいね!した人  |  コメント(0)  |  リブログ(0)
2009-04-25 15:36:04
テーマ:ジャニーズ

草なぎ剛&香取慎吾 SMAP Duet曲「僕の冷蔵庫」と檜町公園批評








 音楽街道をゆく、そして公園道草、かつマッパ(by かしこ ではなくて dukkiedukkie)。


 私が勤めている会社は東京の某ミッドタウンにあり、窓から檜町公園(東京都港区赤坂)を見下ろすことができる。一昨日、出勤したら若い社員(私の部下様)が窓際で騒いでいる。「どないしたんや?」と聞くと、例の草なぎ剛氏逮捕の件で公園にテレビ局取材班がたくさん来ているとのこと。「お前らも裸なって、公園行ってこいや」などと発言する最悪の上司が私。


 檜町公園は赤坂の都心につくられた非常に美しく品のよい公園で、暖かい昼休みには芝生で弁当をとり、食後ゴロリと寝そべってひと時の休息を取るのが気持ちいい場所。


 映画に出てくる公園に例えるならば、ジェフ・ベックとジミ-・ペイジ共存時代のヤードバーズが出演したミケランジェロ・アントニオーニ監督「欲望(Blow up)」に出てくる公園のイメージ。


 あるいは、関西の公園にたとえるならば、木南晴夏嬢生誕地、豊中市の服部緑地に似た雰囲気がある。なにより”空気のにおい”が何となく似ている。都会のエアポケットのような、「新しく人工的に造られた」公園のイメージ。服部緑地の記憶は幼少の頃の記憶(around 1970)のものなので、現在は違うかもしれないが、偉大なる経営者小林一三氏が造った阪急平野 における”息抜きスポット”と、都市計画的に構築された東京ミッドタウンは、その成り立ちにおいて同じベクトルを持っているような気もする。


 檜町公園は、高級マンションや高級ホテルに囲まれているため、13:30ごろで完全に日陰になってしまい昼寝しているとちょっと肌寒くなるところがタマニキズであるのだが。しかし、ちょっと歩くと司馬遼太郎が「街道をゆく」の「赤坂散歩」で描いた氷川神社の静寂で身を包むことができる。なんとなく幸せだ。マッパ、裸になる気持ちもわかる。

 

 草なぎ氏が警察官に取り押さえられる際「シンゴー!シンゴー!」と叫んでいたと報じられている。その”友情”を物語るかが如き、草なぎ被告と香取慎吾氏のデュエット曲、「僕の冷蔵庫」のコード進行を解析してみる。こちらで試聴 できるようだ。歌詞はコチラ に掲載されている。キーはBメジャー。コード進行は結構複雑で、解析難易度は高いと思える。歌パート(Aパート:「アメリカ映画~」)から見て行こう。


歌手:SMAP
作詞:森浩美
作曲:CHOKKAKU

【A】

|E-D#m7 |C#m7-D#m7 |E-D#m7 |C#m7-D|


 骨格は「IV-IIIm7-IIm7-I」の「乙女のポリそー進行」 のドミナント省略版。2小節目のD#m7(=IIIm7)は、I(=B)の代理コードである。音価はそれぞれ、


E=八分音符×4
D#m7=八分音符×3
C#m7=八分音符×4
D#m7(or B)=八分音符×5

と多少「食って」いて、ファンクっぽい曲調を強調する。ファンキーなベース&ギターが素晴らしい。「チョコミント~」のBパートが、ちょっとトリッキーかつ美しい構成で

【B】

|C#m7 |D#m7 |G#m7 |G#7|
|C#m7 |D#m7 |G7 |Fm#7|
|G7 |F#7|

 となる。1~3小節は


IIm7-IIIm7-VIm7

だから、サブドミナント→トニック代理というオーソドックスな進行。4小節目のVI7(=G#7)は、5小節のドッペルドミナントとしてのメジャーコード化。
5~10小節は、

IIm7-IIIm7-bVI7-Vm7-bVI7-V7

であるが、これは本来、

IIm7-IIIm7-V7

サブドミナント→トニック代理→ドミナント、で単純に済むところに、9小節目の
bVI7というサブドミナントマイナー
を混ぜてちょっとした”躊躇””遅延”を演出し、かつ半音下のドミナントをマイナー化した、

bVI7-Vm7

を7~8小節目に挿入するという手法だろう。「夜中に突然君が来ても~」という優しい気持ちから生まれる”ひとりごと”、内心からのつぶやきのような歌詞に見事にマッチした手法である。夜中に突然マッパ、というシチュエーションにも適合するかもしれぬ。


 続いてCパートは

【C】

|C#m7 |F#7 |D#m7 |G#7|

 で、IIm7-V7-IIIm7-VI7。IIIm7はIの代理だから、循環コード。Dパートは

【D】

|C#m7-F#7 |F#7 |B |B|

 で、IIm7-V7-Iのツーファイブ。


 このころのSMAPの曲はジャンル分けすると、フィリーソウルというか、ファンクっぽい感じでとてもよい。様々な素晴らしい仕事をされている作曲者、CHOKKAKU氏ならではの極めてハイセンスな楽曲である。



■関連サイト: Wikipedia CHOKKAKU

■関連記事: 宝塚歌劇団「すみれの花咲く頃」或いは木南晴夏 in 阪急平野四角形
水野亜美+スタジオZ5「美少女戦士セーラームーンR」


このコンテンツは批評目的による森浩美氏、CHOKKAKU氏の音楽の引用が含まれています。音楽の著作権は著作権者に帰するものです。また、個人的耳コピのため音楽的には間違った解釈である可能性もありますが、故意に著作権者の音楽の価値を低めようとするものではありません。】

いいね!した人  |  コメント(0)  |  リブログ(0)
2005-11-15 20:00:18
テーマ:ジャニーズ

花より男子:第4話


十五の夏に―井上真央写真集

花より男子 Vol.1 完全版 (1)
花より男子 Vol.2 完全版 (2)

花より男子 Vol.3 完全版 (3)

花より男子 Vol.4 完全版 (4)

花より男子 Vol.5 完全版 (5)

 神尾葉子原作(集英社刊)、TBS系列金曜ドラマで放映中の「花より男子」。貧乏だが名門高校に通う高校2年生の主人公、ストレートな性格を持つ牧野つくしを、「キッズ・ウォー」などで将来性が期待された井上真央嬢、金持ち坊ちゃんグループ「F4(=Flower 4)」の屈折したエリート、道明寺司を”嵐”の松本潤が演じている。


 つくしと道明寺の初めてのデート、ハプニングで停電のエレベーターのなかで一夜を過ごす。葛藤するつくしの想いと、F4に色々おちょくられても「牧野を傷つけることはしない」と言う道明寺。思春期の屈折した恋心を描く名作を爽やかにドラマ化していて、非常に安心して見られる。


 雨のなか、デートの待ち合わせ場所で出会うつくしと道明寺。道明寺がつくしを抱きしめるところ。そして、F4が”つくしと道明寺の関係”を話し合うシーンで流れているBGM。この曲がとてもキレイで大好きだ。


 前者ではチェロ(ヴィオラ?)のピチカートとストリングスのロングトーン、そしてオーボエのソロが魅力的で、後者ではエレクトリック・ギターが旋律をとっている。この曲をギターで簡易コピー。(音楽監督山下康介氏の音楽より耳コピ引用。間違った解釈である可能性があります。)

         E7                C
  +     +   +   +   +     +   +   +   +
e:----|-0-7-------------|-0-7-----------7-|
B:----|-----------------|-----------------|
G:--7-|---------------7-|-----------------|
D:----|-----------------|-----------------|
A:----|-----------------|-----------------|
E:----|-0-0-0-0-0-0-0-0-|-8-8-8-8-8-8-8-8-|
   G                 D7
   +   +   +   +     +   +   +   +
e:-5-7---5---3---5-|---2---0---------|
B:-----------------|-----------3-----|
G:-----------------|-----------------|
D:-----------------|-0-0-0-0-0-0-0-0-|
A:-----------------|-----------------|
E:-3-3-3-3-3-3-3-3-|-----------------|


 キーは、Gメジャーで、


 Ⅵ7-Ⅳ-Ⅰ-Ⅴ7


というコード進行。Ⅵ7は本来Ⅵm7とマイナーであるはずだが、メジャーになっている(これはもともとⅥm7-Ⅱm7-Ⅳパターンだったのが、ドッペルドミナントとしてⅥm7がメジャー化されてⅥ7に、そしてⅡm7が省略されたと解釈できる)。このメジャー化された響きがとても美しい。その後は完全五度上昇の繰り返し。ギターヴァージョンでは以下のような美しいアルペジオが入る。

   E7                C
   +   +   +   +     +   +   +   +
e:-----------------|-----------------|
B:-------0---------|-------1---------|
G:-1---------1-----|-0---------0-----|
D:---2---------2---|---2---------2---|
A:-----2-----------|-----3-----------|
E:-----------------|-----------------|
   G                 D7
   +   +   +   +     +   +   +   +
e:-----------------|-----------------|
B:-------0---------|-------3---------|
G:-0---------0-----|-2---------2-----|
D:---0---------0---|---0---------0---|
A:---------------2-|-----0-----------|
E:-----3-----------|-----------------|


 音楽を担当しているのは、山下康介氏。あの大林宣彦氏の映画、「三毛猫ホームズの推理」から「理由」までの音楽を担当、ゲーム「信長の野望シリーズ」、「新・愛の嵐」、「ドラえもん・のび太の太陽王伝説」の音楽なども担当した若手(1974年2月17日うまれ)の作曲家。彼の作曲作品かどうか確実な情報は無いが、非常にセンスが良く、感情に訴えかける名曲だ。

 大林ファミリーの才能がこういうドラマで開花しているのを見ると非常に幸せな気分になる。



■関連リンク:花より男子公式ページ(TBS)  山下康介氏情報

■関連記事:ジャニーズ関連記事一覧  尾道



[ このコンテンツは批評目的による山下康介氏の音楽の引用が含まれています。音楽の著作権は著作権者に帰するものです。また、個人的耳コピのため音楽的には間違った解釈である可能性もあります。著作権者主体者の権利、音楽の美学を侵害した場合いかなる修正・削除要請にも応じます】

いいね!した人  |  コメント(114)  |  リブログ(0)
2005-11-15 12:00:47
テーマ:ジャニーズ

香取慎吾「明治ミルクチョコレート」

明治 M10ミルクチョコレート 10入


香取慎吾―27歳の地図
【楽天市場】旅行・出張・ホテル・チケット

 SMAPの香取慎吾が出演する11月9日から放映されている「明治ミルクチョコレート」新TV-CM「いつも、どこでも」篇。中世ヨーロッパのような石畳の街、「チョコレートの国」を舞台とする、ものすごく精巧なCGで作られた夢の国。映像がとても美しい。


 音楽はお馴染みの「明治チョコレート」の曲。(バロック風?)管弦楽曲にアレンジされているが、ギター一本で弾いてみよう。

   Am
   +   +   +   +     +   +   +   +
e:---5-------------|---5-------------|
B:---5---5-4---5---|---5---5-4---5---|
G:-------5-5---5---|-------5-5---5---|
D:-----------------|-----------------|
A:-0---0---0---0---|-0---0---0---0---|
E:-----------------|-----------------|
   Dm                E7
   +   +   +   +     +   +   +   +
e:-----------------|-----------------|
B:-6-6-6-5-3-6-----|-5---4-5---3-1-0-|
G:-----------------|-----------------|
D:-0---------------|-----------------|
A:-----------------|-----------------|
E:-----------------|-0---------------|


 キーAマイナーの、Ⅰm-Ⅳm-Ⅴ7、マイナースリーコード進行だ。


**** ** * 
|4/4 Dm |E7 -A|

 こういう石畳の街に迷い込んでみたい。日本じゃあ、尾道かなぁ、やっぱり。

■関連リンク:明治ミルクチョコレートCM情報

■関連記事:燃えよドラゴン  新選組! メインテーマ  尾道


[ このコンテンツは森永製菓の音楽の引用が含まれています。音楽的には間違った解釈である可能性もあります。】

いいね!した人  |  コメント(103)  |  リブログ(0)
2005-11-14 23:00:20
テーマ:ジャニーズ

KAT-TUN「GLORIA」(グラチャン・イメージ曲)

人気グループKAT-TUN 亀梨和也君愛用ティアドロップ ネックレス
リングタイプ卓上フォトカレンダー KAT-TUN

 「ワールドグランドチャンピオンズカップ2005男女バレーボール大会」の開幕がいよいよ明日(11月15日)に迫っている。女子からスタートし、日本テレビ系列で放送予定だ。


 さて、盛り上がるなか、”応援プロデューサー”KAT-TUN の大会イメージ曲「グローリア(GLORIA)」がよくTVで流れている。今日はこのサビ部分のコード進行をチェック。キーはDメジャー、8ビートの力強いロック曲だ。歌詞はコチラ にメモしている人がいます。


Gl******* lo****** **** ****
|4/4 Bm |G |D |A7|


 Ⅵm-Ⅳ-Ⅰ-Ⅴ7


の繰り返し。このコード進行を繰り返し、ソリッドなギターのアドリブが入ってくる部分がカッコいい。 

 CD発売はまだ未定とのこと。

■関連リンク:ワールドグランドチャンピォンカップ2005

■関連記事:青春アミーゴ  ごくせん「絆」  KAT-TUN+NEWS「Summary」  もぎたて果実


[ このコンテンツは批評目的によるジャニーズエンターテインメント(「乾いた大地」の馬飼野さん?)の音楽の引用が含まれています。音楽の著作権は著作権者に帰するものです。また、個人的耳コピのため音楽的には間違った解釈である可能性もあります。】

いいね!した人  |  コメント(0)  |  リブログ(0)
2005-11-14 10:00:50
テーマ:ジャニーズ

岡田准一(V6)「Vodafone LOVE定額」


タイガー&ドラゴン「三枚起請の回」

東京タワー プレミアム・エディション

 特定の1名に対する通話&メールが月額315円でかけ放題&送り放題。ボーダフォン、4つ目の定額プラン「LOVE定額」だ。テレビ電話サービス「TVコール」も通信料が半額になる。


 V6 (comming century)の岡田准一氏が出演するCM「LOVE定額・ロゴ」篇(コチラで視聴 )の音楽を研究しよう。オーソドックスなロックン・ロールのイントロ部分を切り取ったような構成。キーはEメジャーで、まずドラムスとベースだけから4小節

   E/D#
   +   +   +   +     +   +   +   +
G:-----------------|-----------------|
D:-1---1---1-1-1---|-1-1-1-1---2---1-|
A:-----------------|-----------------|
E:-----------------|-----------------|


 というリズムでスタート。キーがEなのに半音下のD#(=Eb)をベースが鳴らしているように聴こえる。「ここはコードEが当たり前」というような部分で、わざとソレを外した半音下などの音を出して、トニックである根音(E)へのヴェクトルだけ示しておく手法。ロックでは結構多用される術だ。


 エレクトリックギターが加わって4小節。

   E
   +   +   +   +
e:-----------------|
B:-2-------2-------|
G:-2---1---2---1---|
D:-2---2---2---2---|
A:-----2-------2---|
E:-----------------|


 これもEワンコードのところに、A→E→A→Eというコード変化を加えている。これは、ワンコード部分にSus4を加えたり(参照 )するのと同様、単調なワンコード進行を擬似Ⅰ-Ⅳヴァンプ化する手法(参照 )だ。その後、メイン部に突入し、ギターは、

   E                 A
   +   +   +   +     +   +   +   +
e:-----------------|-----------------|
B:-----------------|-----------------|
G:-----------------|-----------------|
D:-----------------|---------2-2-4-2-|
A:---------2-2-4-2-|-0-0-4-4---------|
E:-0-0-4-4---------|-----------------|
   B7
   +   +   +   +     +   +   +   +
e:-----------------|-----------------|
B:-----------------|-----------------|
G:-----------------|-----------------|
D:---------4-4-6-4-|-----------------|
A:-2-2-6-6---------|-----------------|
E:-----------------|-----------------|

 と演奏するなかでフェイドアウト。ちょっとしたイントロでもこれだけ遊べるんだから音楽はオモロイ。

  岡田君は1980年11月18日生まれ。大阪府枚方市出身。V6唯一のB型。1995年、日本テレビ系「天才・たけしの元気が出るテレビ!!」の「ジャニーズ予備校」オーディションでグランプリ獲得。 約3ヵ月後、V6として異例のスピードデビューを果たしたラッキーボーイだ。


■関連リンク:ボーダフォンCMギャラリー

■関連記事:夏のかけら  ザ・フー「トミー」



[ このコンテンツは批評目的によるラモーンズの音楽の引用が含まれています。音楽の著作権は著作権者に帰するものです。また、個人的耳コピのため音楽的には間違った解釈である可能性もあります。】

いいね!した人  |  コメント(10)  |  リブログ(0)
2005-11-13 12:00:07
テーマ:ジャニーズ

野ブタ。をプロデュース PRODUCE 5

【修二と彰】青春アミーゴ (通常版)



白岩 玄
野ブタ。をプロデュース

 昨日(11月12日)放映の「野ブタ。をプロデュース」第5話。修二は信子に、「女の子の可愛さを演出する」(=男に媚びる)能力の欠如を見出す。そのことにより、クラスメート・シッタカとのお台場デートをプロデュースする。信子にほのかな思いを寄せる彰の葛藤が面白かった。信子は結局、シッタカとの距離を縮められなかったが、その分、彰と修二との距離が縮まったように思う。


 「好きじゃない人と付き合う必要があるんですか?」という信子の悩みが心を打つ。そして心のキャッチボールができる環境を、ちょっとずつ、ちょっとずつ作っていこうと格闘する信子の姿がいじらしい。


 さて、今日は登校風景や、お台場デート現場で流れている軽快なBGMをギターでコピーしてみよう。

   C
   +   +   +   +     +   +   +   +
e:-----------------|-----------------|
B:-----------------|-0-------0-0-----|
G:-0-2---2---2---0-|-----2-------2---|
D:-----------------|-----------------|
A:-3-------3---3---|-3-------3---3---|
E:-----------------|-----------------|

 基本的にこの繰り返し。曲間別展開があるが、それはまたの機会に。なお、リズムギターのカッティングは、フレット5の位置の1~3弦(A-E-C)を2拍目、4拍目に裏打ちの形で入れている。よって、コードはC6と解釈しても良いだろう。 

 毎回、信子(堀北真希嬢)の「野ブタパワー、注入」が可愛くて好き。友達ができてちょっと嬉しい。


■関連リンク:「野ブタ。をプロデュース」公式ページ

■関連記事:青春アミーゴ  オープニング曲  堀北真希「コットンフィール」



このコンテンツは批評目的による野ブタ。をプロデュースの音楽の引用が含まれています。音楽の著作権は著作権者に帰するものです。また、個人的耳コピのため音楽的には間違った解釈である可能性もありますが、故意に著作権者の音楽の価値を低めようとするものではありません。著作権者主体者の権利、音楽の美学を侵害した場合いかなる修正・削除要請にも応じます】

いいね!した人  |  コメント(1)  |  リブログ(0)
2005-11-09 10:00:02
テーマ:ジャニーズ

今井翼&手越祐也(NEWS)「とんがりコーン 香ばしバター」

【スナック菓子 まとめ買い】とんがりコーン焼とうもろこし香ばしいこんがり醤油 1ケース(10...


三宅健&今井翼真夏の少年「ネバーランド」

【このコンテンツは批評目的によるハウス食品TV-CM、ジャニーズ・エンターテインメントの音楽の引用が含まれています。音楽の著作権は著作権者に帰するものです。また、個人的耳コピのため音楽的には間違った解釈である可能性もありますが、故意に著作権者の音楽の価値を低めようとするものではありません。著作権者主体者の権利、音楽の美学を侵害した場合いかなる修正・削除要請にも応じます】


 今井翼とNEWSの手越祐也が出演するハウス「とんがりコーン 香ばしバター」のCM。音楽は、今井翼の歌う「見果てぬ夢」。


|4/4 Bb |F7/A |Gm7 |Bb|
|Eb |Dm7 |C7 |F7|

 キーはBbメジャーで、


 Ⅰ-Ⅴ7-Ⅵm7-Ⅰ

 Ⅳ-Ⅲm7-Ⅱ7-Ⅴ7


 1段目はパッヘルベルのカノンパターン(参照 )、2段目は「短二度下降ののち完全四度上昇繰り返し」パターン(参照 :ただし、Ⅵm7ぬき)。


 緑溢れるコーン畑のなかの2人がとても印象的。


■関連リンク:ハウスCM情報

■関連記事:のだめカンタービレ  青春アミーゴ  NEWS&kAT-TUN「Summary」

いいね!した人  |  コメント(0)  |  リブログ(0)
2005-11-02 10:00:59
テーマ:ジャニーズ

堂本 剛(Kinki Kids)「ハイチュウ」

【北海道限定】ハイチュウ 5本入北海道産ハスカップかじゅう100%
[産直沖縄県] 沖縄限定 シークワーサーハイチュウ

KinKi Kids
好きになってく 愛してく

 キンキ・キッズ(Kinki Kids)の堂本剛氏が出演する森永ハイチュウTV-CM「じゅ~しぃ剛編」(残念ながらwebに動画不在)から、堂本氏が歌うフレーズを解析してみよう。


 440Hzで音程を取得してみると、


 くっ(D)ちゃ(D)ら~(D) じゅ~(C)しぃ(Bb) 

 は(G)ぴ(G)は(G)ぴ(Bb)


 となった。コード楽器は鳴っていないのだが、コードアレンジするならば、


***  *** ** ***  
|4/4 Dm7 -C7 |Bb |

 が妥当だろう。1小節の符割は、


 Dm7=♪×6

 C7=♪×2


だ。歌唱力が異様にレベルアップしている堂本氏のヴォイスが素敵な一品だ。


■関連リンク:森永CM情報

■関連記事:冬の散歩道(人間失格)


【このコンテンツは批評目的による森永製菓、ジャニーズ・エンターテインメント社の音楽の引用が含まれています。音楽の著作権は著作権者に帰するものです。また、個人的耳コピのため音楽的には間違った解釈である可能性もありますが、故意に著作権者の音楽の価値を低めようとするものではありません。著作権者主体者の権利、音楽の美学を侵害した場合このページに限り、いかなる修正・削除要請にも応じますので、ご教授ください】

いいね!した人  |  コメント(0)  |  リブログ(0)
2005-11-01 12:00:06
テーマ:ジャニーズ

中居正広(SMAP)「光×電話(くらし)篇」


1997 SMAP LIVE ス

LIVE BIRDMAN

010“TEN”

このコンテンツは批評目的による前田武彦
氏、萩原哲晶氏、ジャニーズエンターテインメント社の音楽の引用が含まれています。音楽の著作権は著作権者に帰
するものです。また、個人的耳コピのため音楽的には間違った解釈である可能性もありますが、故意に著作権者の音楽の価値を低めようとするものではありません。著作権者主体者の権利、音楽の美学を侵害した場合このページに限り、いかなる修正・削除要請にも応じますので、ご教授ください】


 毎回毎回異なるアレンジが楽しい、 NTT東日本「フレッツ光」のCM。「光×電話(告白篇)」 に引き続き中居正広出演の「光×電話(くらし)篇」。キーはGメジャー。


作詞:前田武彦

作曲:萩原哲晶

(***** ++++ *** ***
|4/4 C |Bm7-Em7 |Am7-D7 |G|
**** **** ****
|C |Bm7-Em7 |Am7-D7 |G|


 いきなりサブドミナントⅣ(=C)から始まる大胆なコードアレンジで、


 Ⅳ-Ⅲm7-Ⅵm7-Ⅱm7-Ⅴ7-Ⅰ


という、短二度下降ののち完全四度上昇を繰り返す王道パターン(参照 )で仕上げられている。打ち込みがパーカッシヴでよい感じだ。


■関連リンク:フレッツ光CM情報

■関連記事:光×電話(告白)篇  いつからタモリは「ウキウキWatching」を歌わなくなったか?

いいね!した人  |  コメント(131)  |  リブログ(0)

AD

ブログをはじめる

たくさんの芸能人・有名人が
書いているAmebaブログを
無料で簡単にはじめることができます。

公式トップブロガーへ応募

多くの方にご紹介したいブログを
執筆する方を「公式トップブロガー」
として認定しております。

芸能人・有名人ブログを開設

Amebaブログでは、芸能人・有名人ブログを
ご希望される著名人の方/事務所様を
随時募集しております。