2012-02-21 23:16:14
テーマ:ヴェルヴェット・アンダーグラウンド

ヴァネッサ・パラディ(Vanessa Paradis)"I'm Waiting for a Ma



























 さて、「ヴェルヴェット・アンダーグラウンドの引力渦巻く六角形」にしばらく我々はとどまるべきなのだ。
退廃と、「進化なるもの」「前向きなるもの」との距離をしっかりと測るために。
「25歳にもなったのだから自殺してしまいたかった」と語るAll the Young Dudesの少年は、今、この時代のぼくらの目前に居るのである。
すれ違っているのである。
 だからこそ、「ヴェルヴェット・アンダーグラウンドの引力渦巻く六角形」にしばらく我々はとどまるべきなのだ。

 
 そこで今日は、ジョニー・デップのパートナー、ヴァネッサ・パラディ(Vanessa Paradis)の1992年のアルバムから、
Velvet Underground のカヴァー曲、「I'm Waiting for the Man」
のフレーズを練習しましょう。

 キーはDメジャーで、4/4拍子、エイトビート。


【I】イントロ・パートは、





|D|G|


のいわゆるI-IVヴァンプで、この部分のビート、フィーリングが命の曲です。ギターのフレーズは、抽象化すると、





Music wrtten by Lou Reed
Tabbed by dukkiedukkie(Masataka Koduka)
  4/4
D G7
+ + + + + + + +
e:-2--/7-5-----5---|-----3-1---0-----|
B:-3--/3-3-----3---|-0-3---0---0-3-1-|
G:-2---------------|-0---------------|
D:-0---------------|-0---------------|
A:-----------------|-0-2-------------|
E:-----------------|-3---------------|



みたいなフレーズの繰り返しで、この粘っこいフレーズがLou Reed特有のグルーブ感を作り上げています。
また、このヴァネッサのアルバムは、レニー・クラヴィッツがプロデュースしており、このギターも彼の音楽センスがにじみ出ている気がします。

 さて、歌に入って【A】パートのコード進行は上記【I】と同じ。
【B】パートは、







|D|F#m|G|A7|

 トニック→代替マイナートニック→サブドミナント→ドミナント
のオーソドックスな展開ですが、4小節目はAmでやってもいいし、Amb5+11みたいな感じで弾いてもよし、の
「ドミナントセブンスは基本どんな音が混ざっても不協和音に聞こえにくい」という特性を120%活かして楽しめる感じ。

 
 フレーズ的には、




Music wrtten by Lou Reed
Tabbed by dukkiedukkie(Masataka Koduka)
  4/4
D F#m
+ + + + + + + +
e:-2--/7-5-----5---|-------2---------|
B:-3--/3-3-----3---|-----2-----2-----|
G:-2---------------|---2-----------2-|
D:-0---------------|-4---------------|
A:-----------------|-----------------|
E:-----------------|-----------------|
G A7
+ + + + + + + +
e:-------3-------0-|-1---------------|
B:-----3-----3-3---|-2-3-1-----------|
G:---0-------------|-2-----2---------|
D:-0---------------|-2-------3-0-----|
A:-2---------------|-0-----------3---|
E:-3---------------|-----------------|




 みたいな感じ。弾いててたのしいフレーズです。

 しかし、昔この曲はLou Reedが歌ってたからか「同性愛の歌」って噂もあったりしたのですが、ヴァネッサが歌うと超可愛らしいですね!
 

 ということで、ジョニー・デップも、ヴェルヴェットの磁場にいます。




このコンテンツは批評目的によるVelvet Undergroundの音楽の引用が含まれています。音楽の著作権は著作権者に帰するものです。また、個人的耳コピのため音楽的には間違った解釈である可能性もありますが、故意に著作権者の音楽の価値を低めようとするものではありません。】



いいね!した人  |  コメント(0)  |  リブログ(0)
2012-02-20 21:18:26
テーマ:コード理論

Velvet Underground "White Light/White Heat"




















 昨日、「ロックは最高の玩具で、ヴェルベット・アンダーグラウンドもその一つ」と書いたり、
「フェイセスだけあれば生きていける」的なことを書いたりしているわけだが、しかも最近、布袋寅泰や忌野清志郎をキチンと聴いておいたほうがよいようなヒトの縁を得て、
人生何度目かの「音楽のミューズ」を我が手にしたいものだなあとのらくらと生きているわけなのだが、
布袋寅泰がMott the Hoopleの「すべての若き野郎ども」や、Roxy Musicの「Love is the Drug」、David Bowieのナンバーをカバーしていたり、
Bryan Ferry がVelvet Undergroundの”What Goes On”をカバーしていたり、
Masha QrellaがBryan Ferry の"Don't Stop the Dance"をカバーしていたり、
Mott the Hoople と David Bowieが Velvet Undergroundの"Sweet Jane"をカバーしてたり、
David Bowie とそのスパイダース・フロム・マースのギタリストMick RonsonがVelvet Undergroundの"White Light/White Heats"をカバーしていたり、
なんだかなんだか、同じ穴のムジナというか、数曲の名曲とコード進行とリズムの「穴」というか「ツボ」みたいなものが世界のどこかには存在していて、
その引力と重力に惹かれた、時間や時代や地理を超えた「仲間」というかミュージシャンシップのようなものがあって、その引力の場は六角形とかの形状をしていて、
カッコイイやつとカワイイやつだけが集まっていて、俺もそこに行きたくて、生きていて、
その観点から見て、

「グラム、ヴェルヴェットがあれば他は何もいらん」

みたいなことが、言えるんじゃないかなあ、なんて感じている。よくわからない文章でいつもすみませんが。


 ということで今日は、
Velvet Underground "White Light/White Heat"

 僕にとってこの曲は、Mick Ronson のソロアルバムに邦題「ギターでぶっ飛ばせ」という隠れた名盤があって、その中での演奏が一番記憶に残っているんだけど、
また、レコード屋でバイトしていた時代、バイト仲間のY君と「あのジャケットのミック・ロンソンの衣装、ポーズ、笑えるよね~(^^)」と爆笑してた時の記憶が一番強かったりするのだが、

Mick Ronson "White Light/White Heat"(参照)

 でも、youtubeすごいなあ、以下のDavid Bowie版は初めて見た。カッケー!!

Velvet Underground "White Light/White Heat"


Velvet 版のキーはちょっと440Hzより低めだがおそらくGメジャーで、4/4拍子、エイトビート。

【A】パートは、













|G|G|G|G|
|D|D|G|G|

 と、トニック→ドミナント→トニックの単純な構造。ロック。

【B】パートは、







|G|C|G|G|

で2回繰り返し。トニック→サブドミナント→トニック。

【C】パートも2回繰り返しで、







|F|C|G|G|

「ロックはサブドミナントマイナー」のbVIIが登場して、
サブドミナントマイナー→サブドミナント→トニックのアーメン終止。"What Goes On"同様。


「グラム、ヴェルヴェットがあれば他は何もいらん」

という人間関係の六角形のようなもの。

これを一つの磁場で、コチラ側とするならば、たけしくんもコチラ側にいるべきじゃないかなあ。さらに意味不明なことを書いているが。


このコンテンツは批評目的によるVelvet Undergroundの音楽の引用が含まれています。音楽の著作権は著作権者に帰するものです。また、個人的耳コピのため音楽的には間違った解釈である可能性もありますが、故意に著作権者の音楽の価値を低めようとするものではありません。】



いいね!した人  |  コメント(0)  |  リブログ(0)
2012-02-19 22:02:50
テーマ:コード理論

Velvet Underground "What Goes On"


























 土曜日(2/18)、京王井の頭線池ノ上駅の北口のnamaste asiaという、タイ・ベトナム・ネパール・インド料理屋でビールと飯を摂り、その後ふらりと向かいにある古書店に入って、

・「ブルトン詩集」(高2で一度買って、その後売って買い直し)

・Bonne Koloc "After All This Time"(国内盤LP。高3のときの大学受験で東京に出てきて、新宿のえとせとらでアメリカ盤は購入。with O氏、I氏)

・Velvet Underground "S.T"(編集盤LP。モーリン・タッカーの写真がでかくてよい)

を購入。池ノ上にはこういった目立ちはしないが、質のいいものを安価で置いている店が、ひょっとしたタイミングで見つかるところが、本当によい。


 さて、帰宅して早速ターンテーブルにVelvet Undergroundを置いて聴いたわけだが、

"What Goes On"

にしびれる。そういえば、ブライアン・フェリーが1977年ごろに来日した際のNHK ヤングミュージックショーの録画ビデオが海賊盤屋に出回っていて、
バックメンバーには大好きなAnn Odell嬢だとか、John Wetton やら、Chris Mercerが含まれていたりしたので、学生時代(もう20年以上前ですが(^_^;))
何回も何回も見ていた。その、ライブ終了後のエンドロールで、Bryan Ferryのカバーした"What Goes On"が流れていたことを思い出した。
 Bryan Ferry は、マルセル・デュシャンの大ガラスへのオマージュ作品、「ベールを脱がされた花嫁」で、この曲をやっていたのだなあ。
 まあ、どうでもいいような思い出なのだが。


 で、今日はこれを数時間、弾き語って遊んだので、これを(w)。
キーはDメジャーで、4/4拍子、エイトビート。

【I】イントロはさり気なく、Dワンコード2小節。





|D|D|


 ギターのカッティングイメージだが、白人の退廃系文化(もちろん、Lou ReedやBryan Ferryを含みます)って、思ったよりも意外とリズムがFunk だったりするわけで、
ローポジション、ハイポジションどこで押さえてもいいんだけど、




Music wrtten by Velvet Undergound
Tabbed by dukkiedukkie(Masataka Koduka)
  4/4
D
+ + + +
e:-2-222-22-33-3-2-|
B:-3-333-33-33-3-3-|
G:-2-222-22-22-2-2-|
D:-0---0-------0---|
A:-----------------|
E:-----------------|


みたいに、sus4を挟んだ16ビートでカッティングすべきだろう。

 歌詞は、こちらなどをご参照で歌いましょう。

【A】パートは、







|D|D|C-G|D|

で2回繰り返し。I->bVII->IV->I のトニック→サブドミナントマイナー→サブドミナント→トニックの構造。
Lou Reedも効果的にサブドミナントマイナーを使う使い手。っていうかロックってサブドミナントマイナーなんだろうけど。


【B】パートも2回繰り返しで、







|A|G|D|D|

  ドミナント→サブドミナント→トニックのアーメン終止。ロックだ。

まあ、これを繰り返せば一日中楽しめるという、僕が何回かこのブログで書いている

「ロックは手軽な玩具」

を証明する一曲!!みんな、弾いてみてね!!!!

このコンテンツは批評目的によるVelvet Undergroundの音楽の引用が含まれています。音楽の著作権は著作権者に帰するものです。また、個人的耳コピのため音楽的には間違った解釈である可能性もありますが、故意に著作権者の音楽の価値を低めようとするものではありません。】


いいね!した人  |  コメント(0)  |  リブログ(0)
2012-02-18 22:20:59
テーマ:コード理論

Robert Wyatt "Shipbuilding"














 最近、最も入れ込んでいるアーティストはベルリンのマーシャ・クレラ(Masha Qrella)さんなのであるが、
彼女の音楽に触れるたびに、その「音楽的さわり心地」とか匂いから、ロバート・ワイアットの音楽をたびたび思い出してしまう。


ロバート・ワイアット「Shipbuilding」

で、今日は上記曲を。
エルヴィス・コステロと彼のアトラクションズにいた元デフ・スクールのクライヴ・レンジャーの作曲で、
80年代初頭のフォークランド紛争勃発に抗議して作られた作品。


キーはCメジャーで、4/4拍子、シャッフルビート。

【I】イントロパートのコード進行は、







|Dm|F/C|Bdim|Em7/G|


ベースラインが、D->C->B->Gと下降していく心地よいライン。
Dm, Fはサブドミナントで、トニック代替のEm7に至る前にその完全5度であるBをルートとしたディミニッシュコードを
遷移コードとして置き、Bdim=Fdimでもあるため、2小節目のFからもなめらか~に遷移しています。


【A】パートは、













|Am|C|F|Ab|
|G|Bb|Ab|G|

マイナートニックであるAmに一応転調してから、トニックC、完全4度上昇でサブドミナントFに行って、
サブドミナントマイナー代替であるbVI=Abへ移動。
半音下降してドミナントGを経たかと思うと、サブドミナントマイナー代替bVII=Bb, bVI=Abを美しく下降して、
またドミナントへ至る。


【B】パートの一回目は、








|C|F|G|C|C-C9|

 トニック→サブドミナント→ドミナント→トニックのオーソドックスな進行。
「もうすぐ私たちは船を作る仕事に駆り出されるだろう」と悲しく歌うワイアット。

 そこからAパートに戻って、2回目の【B】パートは、






















|C|F|G|Am|
|G/B|Am/C|G7/D|C|C|
|Bb|Eb|Ab|G7|C|C|

トニック(C)->サブドミナント(F)->ドミナント(G)->マイナートニック(Am)->
ドミナント(G)->マイナートニック(Am)->ドミナント(G)->トニック(C)
とドミナント⇔トニックの揺らぎを加えて、揺らぐ不安な心理を強調。強調してから、
 サブドミナントマイナー(Bb)から、完全4度上昇でIIIb(Eb)、また完全4度上昇でサブドミナントマイナーbVI=Abを挟んで、
切なさを際立たせてから、半音下降してドミナントG、完全4度上昇でCで解決という。。
 美しい、流れるようなコード進行です。

 
 戦争・政治に反対する歌や表現などには露骨なものも色々あるのですが、
「真珠を探して、海に潜ることだってできるっていうのに、
 戦争で死ぬために海に突っ込んでいくなんて…」
という「静かな抗議と怒りのメッセージ」に深く共感します。

このコンテンツは批評目的によるElvis Costello氏, Clive Langer氏の音楽の引用が含まれています。音楽の著作権は著作権者に帰するものです。また、個人的耳コピのため音楽的には間違った解釈である可能性もありますが、故意に著作権者の音楽の価値を低めようとするものではありません。】


いいね!した人  |  コメント(0)  |  リブログ(0)
2012-02-16 21:30:32
テーマ:著作権

牧歌組合「灯りをみつけた」













 今日は、マーシャ・クレラさんのNext Timeのコード解析の続きを書く予定だったが、別件。

 昨日、前職で知り合った尊敬するエンジニアN氏と、O氏と、同僚のD氏とで昼食を摂ったのであるが、たのしい会話の中、
 「この人(=小生のこと)は、今まで上手く出世しそうな寸前に総てぶっ壊して生きてきたヒトだ」

 というような形容をいただいた。正直、自分は自分のことを「パンクでロッカー」と自惚れていたりするので、非常に光栄で嬉しかった。


 「ジャズの巨人」であったチャールズ・ミンガスが、自伝で自らのことを「負け犬」と呼ぶセンス、
 親愛なる友人ミュージシャン、塚本功くんがたまにライブでカバーする忌野清志郎の「よそ者」、
 「なぜいつも俺は盗人呼ばわりされるのか?」と歌う ザ・バンドの「怒りの涙」
 「ちっさなイスに腰掛けてふんぞり返っている奴にはなりたくない」みたいなことを書いた宮沢賢治。


 僕は、上述のような「感じかた」が好きだ。それは、ひがみではなく、生きる上で世の中と自分の距離を計り、大切にするための一種の「礼儀」だ。 

 僕は、大学も中退しているし、転職歴もひどいもんだ。
 だけど、流浪の民であっも、一生さすらっていても、たとえ、たびたび一箇所への定住を追われたとしても、結局「これでいいのだ」と思っている。
 それで、音楽を創りだした、ユダヤ人や、アイルランド人や、黒人の「感じかた」に近づけるのであれば、もし、少しでもそうなのであれば、「これでいいのだ」と思う。


 さて。

 このブログでも、他人の曲のことばかり書いて、過去「何故私はいつも盗人扱いされなきゃならないのか?」と身にしみる問題を起こしているのであるが、
今日は、ちょっと初めて趣向を変えて、自分の作曲した曲のコード進行を解析します。

牧歌組合「灯りをみつけた」

こころば「灯りをみつけた」

 大好きなトッド・ラングレンとビル・モンローに「I Saw the Light」というこれも大好きな美しい曲があって、そのタイトルで自分が曲を書いたらどうなるかな?
と思って書いた曲です。

キーはCメジャーで、4/4拍子、エイトビート。

【I】イントロパートのコード進行は、Dのワンコード8小節。主調にたいしてIIをドッペルドミナントでメジャー化して【A】パートのGにつなげます。
【A】パートは、








|G|Bm|F|C|

の繰り返し。シンプルです。V(ドミナント)から、長3度上がってVIIm(まあ、V代替ですな)、そこから短5度上昇で裏コードであるIVに遷移して、
5度下降でIに戻る。まあ、無理ののないコード進行。

【B】パートは、








|Am-G|F-C|Am-G|F-C|

の繰り返し。単純です。マイナートニックVImにいき、V-IV-Iで解決。

 自分の曲なので、あれこれ客観的に書けませんが、本ブログ初めて!(∩´∀`)∩ワーイ
 歌詞を堂々と掲載しておきます。






「灯りをみつけた」
作曲:小塚昌隆
作詞:小塚昌隆、山本郁子 

きらりきらり
星よりもはるか
ミルクのような
安らかな揺らぎ

ふわりふわり
想いより軽い
魂はいま
サーカスのようね

灯りをみつけた
雨の降りそうな日
もう遊べない空き地に
灯りをみつけた


ゆらりゆらり
海よりも静か
振り子のような
やわらかな刻み

ぽつりぽつり
想いより近い
土に播いた
種が起きる音

灯りをみつけた
雨の降りそうな日
もう遊べない空き地に
灯りをみつけた


 最後の2行は、郁子姉さんに手伝ってもらってますが、僕の詩です。

 どうぞ、歌ってくださいねー。


いいね!した人  |  コメント(0)  |  リブログ(0)
2012-02-14 22:27:29
テーマ:コード理論

Sonic Youth "Schizophrenia"(2)














Sonic Youthの"Schizophrenia"、昨日の続き。サーストンの歌は昨日の【A】パートを繰り返して続き、インストルメンタルパートに入る。冒頭を【B】パートとして、







|A7+11|A7+11|A7+11/G|A7+11/G|

基本Aのワンコードで、




Music wrtten by Sonic Youth
Tabbed by dukkiedukkie(Masataka Koduka)
  4/4
A7+11
+ + + + + + + +
e:-----------------|-----------------|
B:-2---2---2-2---2-|---2333333-3-2-2-|
G:-0---0---0-0---0-|---0000000-0-0-0-|
D:-----------------|-----------------|
A:-----------------|-----------------|
E:-----------------|-----------------|


と、ギターを掻き鳴らす。これを8小節挟んで、【C】パートは、コード進行は、
|D|D|A6/F#|A6/F#|
の繰り返し。まあ、タブ譜を記載してもキリがないというか(笑)、ここらへんは天才サーストン氏が、ギターの音色と戯れながら弾いているところなので、各自耳コピして楽しんでみて下さい(←言い訳か)。

 さて、キム・ゴードンの叫ぶような壊れ行くVOICEが際立つ【D】パートのコード進行は、
|D|A6|
の繰り返しで、ここのギターのフレーズもかなり美しい。




Music wrtten by Sonic Youth
Tabbed by dukkiedukkie(Masataka Koduka)
  4/4
D
+ + + + + + + +
e:------/2-----2-3-|-2---------------|
B:------/3-----3-3-|-3---------------|
G:-2---------------|-2---------------|
D:-0---------------|-----------------|
A:-----------------|-----------------|
E:-----------------|-----------------|
A6sus4
+ + + + + + + +
e:------/5-----5-7-|-------5---------|
B:/2---------------|-----------------|
G:/2---------------|-----------------|
D:-0---------------|-----------------|
A:-----------------|-----------------|
E:-----------------|-----------------|
D
+ + + + + + + +
e:-------10--------|---10------------|
B:-------10--------|---10------------|
G:/11----------1110|-9---------------|
D:-----------------|-----------------|
A:-----------------|-----------------|
E:-----------------|-----------------|
A6
+ + + + + + + +
e:-----------------|-----------------|
B:-----------------|-----------------|
G:-1614----1614----|-----------------|
D:-----1412--------|-----------------|
A:-----------------|-----------------|
E:-----------------|-----------------|



この曲を聴いたのは、もう20年以上前、大学の寮に住んでいた時に新宿のレコード店でバイトしていて、そのバイト先店内で聴いたのであるが、このを歌う、Kim Gordonの声、本当に際立って孤高で美しく、儚く、一瞬で悩殺されて、大好きになってしまった。

そこを経て【E】パート、Dのワンコードで、




Music wrtten by Sonic Youth
Tabbed by dukkiedukkie(Masataka Koduka)
  4/4
D
+ + + + + + + +
e:-5-5-5-5-5-5-5-5-|-5-5-5-5-3-3-3-3-|
B:-3-3-3-3-3-3-3-3-|-3-3-3-3-3-3-3-3-|
G:-2-2-2-2-2-2-2-2-|-2-2-2-2-2-2-2-2-|
D:-----------------|-----------------|
A:-----------------|-----------------|
E:-----------------|-----------------|
D
+ + + + + + + +
e:-2-2-2-2-2-2-2-2-|-2-2-2-2-2-2-2-2-|
B:-3-3-3-3-3-3-3-3-|-3-3-3-3-3-3-3-3-|
G:-2-2-2-2-2-2-2-2-|-2-2-2-2-2-2-2-2-|
D:-----------------|-----------------|
A:-----------------|-----------------|
E:-----------------|-----------------|



 などとジャカジャカやって終わり。
 
 しかしこれみたいに「破滅や破壊やデカダンスが似合うロック」ってあまりないね。いいなー。

このコンテンツは批評目的によるSonic Youthの音楽の引用が含まれています。音楽の著作権は著作権者に帰するものです。また、個人的耳コピのため音楽的には間違った解釈である可能性もありますが、故意に著作権者の音楽の価値を低めようとするものではありません。】



いいね!した人  |  コメント(0)  |  リブログ(0)
2012-02-13 22:20:04
テーマ:コード理論

Sonic Youth "Schizophrenia"















旧友に会いに行ったら、頭がおかしな姉が出てきた。「罪を知らない双子の兄弟を、キリストは持っていたの」と喚きながら、彼女は私が巻き込まれているトラブルを大笑いした。
彼女の明るいひとみは踊ってる。旧友は「姉は金の鎖に繋がれた売女」と言った。彼女は私に近づいて囁いた。
「骨身にしみてわかってるの。分裂症だけが、私を家に連れ戻してくれるって。
私の将来は静的。押し付けられたり、話しあったりして、体験したことばかり。
 私には夢があるの。それは景色を切り裂くわ。そしてそれが舞い戻ってきて私を突き刺す予感がするの」
(ソニック・ユース(Sonic Youth)の「Schizophrenia」の大意)


 自分にとって重要な意味を占める何かが、崩れ去るときの音を聴いたことがあるだろうか? 積木くずしは「ガラガラ」と嫌な音を立てて崩れるのだろうか?
 僕はその音は、Sonic Youthのこの曲の中にあるような気がしている。とくに中盤からの、サーストン・ムーアの悲しいほど美しく破滅的でやかましいギターの音色。僕の人生の転換期に必ずといっていいほど、この曲を聴きたくなる。何かが崩れ去る数週間前から、なんとなくこの曲を繰り返し聴きたくなって、実際に何かが崩れる。予感は当たるものだ。


 昨年後半はとくにこの曲を渇望しており、会社の忘年会バンドでも演奏したくてしかたなくてカバーした。
キーはDメジャーで、4/4拍子、エイトビート。

【I】イントロパートのコード進行は、














|Dsus4|Dsus4|Asus4|Asus4|
|G69/A|G69/A|D|D|

で、これは歌の【A】パートとも同じ。I(トニック)→V(ドミナント)→IV(サブドミナント)→I(トニック)の単純なスリーコード曲なのであるが、
トニックとドミナントのsus4がVamp特有の浮遊感、ふわっとした感じを演出しており、これが「気の狂った姉」のイメージを創り上げるのに貢献しているのだと感ずる。

 ここのギターカッティングは、




Music wrtten by Sonic Youth
Tabbed by dukkiedukkie(Masataka Koduka)
  4/4
Dsus4
+ + + + + + + +
e:-2---2---2-2---2-|---2-2-2-2-2-2---|
B:-3---3---3-3---3-|---3-3-3-3-3-3---|
G:-0---0---0-0---0-|---0-0-0-0-0-0---|
D:-0---0---0-0---0-|---0-0-0-0-0-0---|
A:-----------------|-----------------|
E:-----------------|-----------------|
Asus4
+ + + + + + + +
e:-0---0---0-0---0-|---0-0-0-0-0-0---|
B:-2---2---2-2---2-|---2-2-2-2-2-2---|
G:-2---2---2-2---2-|---2-2-2-2-2-2---|
D:-0---0---0-0---0-|---0-0-0-0-0-0---|
A:-----------------|-----------------|
E:-----------------|-----------------|
G69/A
+ + + + + + + +
e:-----------------|-----------------|
B:-3---3---3-3---3-|---3-3-3-3-3-3---|
G:-0---0---0-0---0-|---0-0-0-0-0-0-2-|
D:-0---0---0-0---0-|---0-0-0-0-0-0---|
A:-----------------|-----------------|
E:-----------------|-----------------|
D
+ + + + + + + +
e:-----------------|-----------------|
B:-3---3---3-3---3-|---3-3-3-3-3-3-3-|
G:-2---2---2-2---2-|---2-2-2-2-2-2-2-|
D:-0---0---0-0---0-|---0-0-0-0-0-0-0-|
A:-0---0---0-0---0-|---0-0-0-0-0-0-0-|
E:-----------------|-----------------|



1~4小節は、サスフォーで入れている4thを弦として一番低いところに開放で入れているところが、ロック!!!!カッコイイです。
カッティングしていて非常に気持ちがいい~。続きは明日!

このコンテンツは批評目的によるSonic Youthの音楽の引用が含まれています。音楽の著作権は著作権者に帰するものです。また、個人的耳コピのため音楽的には間違った解釈である可能性もありますが、故意に著作権者の音楽の価値を低めようとするものではありません。】


いいね!した人  |  コメント(0)  |  リブログ(0)
2012-02-12 21:20:07
テーマ:コード理論(アニメ)

スポンジ・ボブの音楽から
















 とても大好きで、見ていて全然退屈しないのに、まとめて小一時間以上じっくり見ていると必ず途中で眠ってしまう作品ってないだろうか。
僕にとってはまず、「刑事コロンボ」。全シリーズ見ているし、全作小説版も繰り返し繰り返し何度も読んでいる。本当に大好きなのであるが、一度たりとも見ている途中で部分的に寝なかった試しがない。途中で寝てしまうから、またしつこく繰り返し見るが、同じく違う部分で居眠りしてしまう。その作品の記憶は、部分部分に穴が開いたビンゴゲーム用紙を重ねあわせたような、製作者の意図とは異なった作品として、僕の記憶の中にデッチ上がっているのだろう。良し悪し、を語りたくはないものだけれども、概ね視聴者にとっての”作品”なるものは同様な歯抜けビンゴゲーム用紙のタペストリーであるような気もする。 

 しかし、誓って(←何に?)言いたい! 心地よい眠りを提供できる作品は名作である。概ね、駄作は人を苛つかせるものだ。眠らせてくれない。不安しかくれない。

 さて、今週末、どうやら「スポンジ・ボブ」が、僕のなかで「とても大好きで、見ていて全然退屈しないのに、まとめて小一時間以上じっくり見ていると必ず途中で眠ってしまう作品」に仲間入りしたようである。
 よく、次男が小学生時代、スポンジ・ボブをケーブルTVの「Animax」なんかで見ていいた。それを横で見ていて、大笑いしていた。この間、”スポンジ・ボブねた”を語る人々が数名、職場、プライベート、腐れ縁関係、共に現れていたため、「キャラクター名とかよく知らないしなあ。ちょっと纏めてみてみるか」と土曜日に「スポンジ・ボブ」のDVDを借りてきたのである。

 スポンジ・ボブはBGMも最高だ。ハワイアン色が強くスティール・ギターの音色が多くフィーチャーされている印象であるが、ブルーグラス、ウェスタン・スウィング、ポルカ、カントリー、ニューオーリンズ・ジャズ、ロックまで、アメリカ・ルーツ・ミュージック目白押しで、これだけを楽しんでも心地よく寝息を立てられるzzzzzz..


 いや、眠りこけてはいけない。
 しかしだ。「スポンジ・ボブといえばこの歌!」「スポンジ・ボブの主題歌はあれでしょ」みたいな所謂”全ての中心となるメロディ”、”吸引するメロディ”、”引力をもつ主題曲”、”あらゆる生きとし生けるものを惹きつけ、巻き込んでしまうような魔力を持った”......しつこいな。すんません。
 つまり、「スポンジボブの主題歌」、と呼べるような音楽が無いように見受けられるのである!!(←個人的に知らないだけかもしれないので、知ってる人は教えてくださいm(_ _)m

 さて、せっかくのスポンジ・ボブ鑑賞、何かしら「ああ、このメロディはスポンジ・ボブ風やなあ~」というお土産を持って帰りたかったものなのであるが、毎エピソード、始まる音楽は異なるし、スポンジ・ボブが活躍したり(しないか)、必殺技を放ったり(しないか)するときに彼を象徴するような音楽はナイ。本当にどのBGMも素敵なんですけどね。残念。


 であるため、7エピソード入りDVD「いつだってキミに夢中」(To Love a Patty)のメニュー画面で流れている、ちょっと戦前ブルース風というか、ウェスタン・スウィング風というか、ストンプ風みたいな、チープなギターの音色がドブロみたいな曲のフレーズをコピー。
キーはEメジャーで、4/4拍子、8分音符♪♪がシャッフルしている感じ。





Music from Sponge Bob Square Pants
Tabbed by dukkiedukkie(Masataka Koduka)
  4/4
E
+ + + +
e:-7-67-97-----------------|
B:-------------------------|
G:-------------------------|
D:-------------------------|
A:-------------------------|
E:-0-----7-----0-----7-----|


 スポンジ・ボブみたいにへなへな~って感じにチープな高音を奏でる。どうも音源は弦楽器二本入っているみたいですが、親指を使ってベースラインも弾くとた・の・し・い!
 これを2,3回適当に繰り返したら、




Music wrtten by Dave Grusin of Ron Wood/Rod Stewart
Tabbed by dukkiedukkie(Masataka Koduka)
  4/4
B7
+ + + +
e:----2--------2--------2--|
B:---0-----0---0-------0---|
G:-------2----22----2------|
D:-------------1--------1--|
A:-2--2--------2--------2--|
E:-------------------------|
B7 E
+ + + +
e:----2-----2--------------|
B:---------0---------------|
G:---2---2-----1-----------|
D:-------------2-----------|
A:-2-----------2-----------|
E:-------------0-----------|



 サブドミナント(B7)をわたってから、トニックに落ち着いてフェルマータ。なんだかほのぼのするメロディで、繰り返し弾いて楽しめます。続きはまた後日!

 しかし、今週末多少風邪気味だったのだが、途中で何度も眠ってしまうため、上記メニュー画面の音楽がずっと流れっぱなしだった。ボブも俺もアホやなあ。

このコンテンツは批評目的によるスポンジ・ボブの音楽の引用が含まれています。音楽の著作権は著作権者に帰するものです。また、個人的耳コピのため音楽的には間違った解釈である可能性もありますが、故意に著作権者の音楽の価値を低めようとするものではありません。】


いいね!した人  |  コメント(0)  |  リブログ(0)
2012-02-10 00:03:02
テーマ:フェイセス(Faces)

これじゃ俺等が生きている事さえ無駄な気がしてきた:「ガソリン・アレイ」by ロッド・ステュワート












 何もかもが上手く行かなくて、毎日毎日が。これじゃ俺等が生きている事さえ無駄な気がしてきた。
(浅川マキさんの日本語訳詞、ディヴ・グルースィン or Rod Stewart/Ron Wood作曲の「ガソリン・アレイ」(Gasoline Alley)より引用)
※Rod のアルバムでは、Rod StewartとRon Wood作曲となってますが、浅川マキさんのアルバムではDave Grusin作曲となっており、真相はよくわかっておりません。


 生きることは色々つらいことも沢山ある。
 先週末土曜日(2012/02/07)、下北沢のleteにおける友人ミュージシャン、塚本功くんのライブに行った。そのなかで、上記曲がカバーされていて、甚だ感動してしまって、それからずっとここ数日、浅川マキさん訳詞の「帰ろう、おいらの生まれた、あのガソリン・アレイへ~♪」が頭を離れないのである。
この曲を初めて聴いたのは弟が買ってきたロッド・ステュワート(Rod Stewart)のVertigo盤のセカンドアルバムのA面一曲目。すぐさまテープに録音して磨り減るくらいまで聴いた。
まだ子供が小さい頃、週末ともなれば奥多摩方面へドライブにでかけていた時期があった。妻しか運転免許を持っていなかったため、僕は助手席でガソリン・アレイのテープをガンガンかけて、歌っていた。彼女にかけたストレスや顰蹙と同様に、テープにかけられた圧力により、いつのまにかテープは聴けた状態ではなくなってしまった。

 「たまにさ、Facesだけあればいいと思うときあるよね」と、塚本くんのライブに一緒にいったボッテは飲みながら言った。同感だ。彼は、大学時代、寮の同居人だ。1歳下で入寮してきて、僕が持っているFacaesや初期ロッド・ステュワートのアルバムを何回も聴いてギターを練習していた。もちろん「ガソリン・アレイ」も含まれていた。それを思うと、テープがひしゃげた原因は僕にだけあるのではないのかもしれない。。。。いやいや、でも、僕のせいだ、夏の暑い車のカセットデッキの中に長時間いつも突っ込んでいた僕のせいだろう。

 浅川マキさんの日本語版バージョンがあることを知ったのは、大学を中退したあと、そう、塚本功くんや、山下さん、植村さんと一緒にバンドをやっていたころだ。まだ、駒場寮は健在で、子供が産まれたばかりでお金がない僕はスタジオを練習のために借りる経済力がなく、アンプを運んで駒場寮で塚本くんや山下さんとリハーサルしていた。
そのとき、練習していた部屋(北2S)に、「ガソリン・アレイ」を含んだ浅川マキのアルバムがあった。これを大音量でかけて、「いいなあ。いいなあ。これ、僕らでもやりたいなあ!」なんて、吉祥寺マンダラ2でのライブ3日前くらいに、はしゃいでいた。

 結局、(フェイセズの「ウー・ラ・ラ」は自分の日本語訳詞でやりましたが)「ガソリン・アレイ」を塚本くんや山下さんと演奏することはできなかった。
 というような経緯で、先週土曜日、「帰ろう、細い路地の、あのガソリン・アレイへ」と歌う塚本くんを見て、聴いて、ものすごくボッテと感動してしまったのだろう。

 今日、会社の帰り、渋谷のタワーレコードで左の2枚のアルバム(Rod Stewart "Gasoline Alley", 浅川マキ "Live" )を買ってきた。そして今繰り返し、繰り返し聴いている。
 
 
 実は昔、ガソリンアレイのFaces演奏版の耳コピをしてみたがあまりよく構造を理解できなかった。今回も理解できてるかできていないか自信がないのであるが、
ステュワート版は、キーはEメジャーで、4/4拍子、エイトビート。
【I】イントロパートのコード進行は、







|Asus4|A|E|E|


の繰り返しなのだろう。トニック(I)のEに対するサブドミナント(IV)=Aとのヴァンプに、サブドミナントのSus4を加えた構造。
ここを過去、僕にとってのガソリン・アレイ、立川の公営団地=松中団地に住んでいたころ、
Bsus4->A->E (Vsus4->IV->I)
という構造だと思い込んでいた時期があったが。。。。自分の人生と共に音楽の構造の捉え方も変わるから、音楽は面白いのだ。

 この【I】パートは、歌のサビ【B】パートとも同じコード進行で、ギターのプレイもあまり変わらない。Ron Woodの卓越した悲しいスライド・ギターに耳が行きがちであるのだが、
アコースティック・ギターとマンドリン(??)のプレイも非常に美しい。複数の弦楽器がリズム隊として関わっているのであるが、マージしてみると、





Music wrtten by Dave Grusin or Ron Wood/Rod Stewart
Tabbed by dukkiedukkie(Masataka Koduka)

  4/4
Asus4 A
+ + + + + + + +
e:-------0---------|-------0---------|
B:-3---3-----3-3---|-2---------2-2-2-|
G:-2---2-------2---|-2-----------2-2-|
D:-2---2---2---2---|-2---2-------2-2-|
A:-0---0---0---0---|-0---0---0---0---|
E:-----------------|-----------------|

E
+ + + + + + + +
e:-----------------|-----------------|
B:-----------------|-----------------|
G:-1---------------|-----------------|
D:-2---4---2-2-----|-------2-6-4-2---|
A:-2---2---2-2-4---|-2---4-2---2-2---|
E:-0---0---0-0-0---|-0---0---0-0-0---|



みたいなフレーズ。めっちゃカッコイイ~(^O^)
 ロン・ウッドとロニー・レーンがギターを弾いているのだろうが、この二人には、ブルージーなパワーコードとケルト風の繊細なアルペジオをジャンルを超えて軽々と止揚する才能が非常に強くある。そこが僕は大好きです。

 さて、歌が始まる【A】パートはEメジャーのワンコードで、




Music wrtten by Dave Grusin or Ron Wood/Rod Stewart
Tabbed by dukkiedukkie(Masataka Koduka)
  4/4
E
+ + + +
e:-----------------|
B:-9---9-9-9---9-9-|
G:-9---9-9-9---9-9-|
D:-9---9-9-9---9-9-|
A:-7-------7-------|
E:-7-------7-------|


 みたいな感じ。もっと低いところでもよさげ。まあ、ラフに適当に弾くべし!ワンコードで遊べるところが、フェイセスの音楽のよいところでもあるからなあ~。

 上記フレーズ、非常に面白く、何回も何回も弾いてしまった、今夜。たしかにフェイセスだけあれば、生きてても無駄じゃない気がしてきた。な。

このコンテンツは批評目的によるRon Wood氏、Rod Stewart氏、Dave Grusin氏、浅川マキさんの音楽の引用が含まれています。音楽の著作権は著作権者に帰するものです。また、個人的耳コピのため音楽的には間違った解釈である可能性もありますが、故意に著作権者の音楽の価値を低めようとするものではありません。】


いいね!した人  |  コメント(0)  |  リブログ(0)
2011-12-24 02:40:04
テーマ:コード理論

牧歌組合をプログラムにしてみたら?

ご無沙汰してます!今年ももうクリスマス、パッヘルベルのカノンが心にしみる季節となりました。

さて、「牧歌組合」でも過去パッヘルベルのカノンを何度も取り上げてきましたが、最近エンジニア&Perlプログラマとしての本職にて、原稿を書かせていただく機会を得ましたので、
牧歌組合をお読みいただいているかたは是非チェックお願いしますm(_ _)m。

http://perl-users.jp/articles/advent-calendar/2011/hacker/24
↑「コード進行解析をプログラム化したら?」
というテーマで作り中のPerl Module です。ぜひ使ってみてくださいな(^^ゞ

その他、
http://perl-users.jp/articles/advent-calendar/2011/casual/18

http://perl-users.jp/articles/advent-calendar/2011/hacker/10

http://perl-users.jp/articles/advent-calendar/2011/dbix/12

http://perl-users.jp/articles/advent-calendar/2011/test/6

http://perl-users.jp/articles/advent-calendar/2011/test/19


(いきなりで恐縮ですが)僕には夢があります!!!
「賢い音楽DBを作る」という夢です。その音楽DBは、単にCDや音源を売るためのものでなく、著作権使用料をもらう(笑)ためのものでもなく、
音楽を作り、音楽を楽しむ人々と、その先の”新しい音楽”のcreateに寄与できるデータベースです。

エンジニアとして働いているときも、音楽のコード進行を解析して楽器を引いている時も、blog「牧歌組合」を一生懸命書いていた(w)ときの私も、
すべて、同じ夢に向かっているのだとおもいます。

是非、BokkaKumiaiモジュールをダウンロードして使ってみてください~
https://github.com/dukkie/BokkaKumiai/blob/master/lib/BokkaKumiai.pm

いいね!した人  |  コメント(0)  |  リブログ(0)

AD

ブログをはじめる

たくさんの芸能人・有名人が
書いているAmebaブログを
無料で簡単にはじめることができます。

公式トップブロガーへ応募

多くの方にご紹介したいブログを
執筆する方を「公式トップブロガー」
として認定しております。

芸能人・有名人ブログを開設

Amebaブログでは、芸能人・有名人ブログを
ご希望される著名人の方/事務所様を
随時募集しております。